Song name
# A B C D E F G H I J K L M N O P Q R S T U V W X Y Z

Dayglo Abortions - Bunchoffuckingoofs tab

from two dogs fucking

riff 1
|--------------------------------------|
|--------------------------------------|
|--------------------------------------|
|-7-99-9910-99-99-1210101010-910101010-|
|-5-77-77-8-77-77-10-8-8-8-8-7-8-8-8-8-|
|--------------------------------------|


riff 2
|---------------------------------|
|---------------------------------|
|---------------------------------|
|-7-99-99-7-99-99-5--4-5--4-------|
|-5-77-77-5-77-77-3--2-3--2-5-4-2-|
|---------------------------3-2-0-|
Tap to rate this tab
# A B C D E F G H I J K L M N O P Q R S T U V W X Y Z