Song name
# A B C D E F G H I J K L M N O P Q R S T U V W X Y Z

Dayglo Abortions - Wake Up America tab

Help us improve GuitareTab! Take a short survey!
#----------------------------------PLEASE NOTE---------------------------------#
#This file is the author's own work and represents their interpretation of the #
#song. You may only use this file for private study, scholarship, or research. #
#------------------------------------------------------------------------------##
Date: Thu, 14 Sep 1995 21:40:38 -0600 (MDT)
From: Rambozo 
Subject: Wake up america by the DAYGLO ABORTIONS


hmm...simple song

e-|-------------|
B-|-------------|
G-|---7-3---7-3-|
D-|-5-7-3-5-7-3-|
A-|-5-5-1-5-5-1-|
E-|-3-----3-----|


e-|---------------------------------|
B-|---------------------------------|
G-|---------7-7-7-7-3-3-3-3-5-5-5-5-|
D-|-5-5-5-5-7-7-7-7-3-3-3-3-5-5-5-5-|
A-|-5-5-5-5-5-5-5-5-1-1-1-1-3-3-3-3-|
E-|-3-3-3-3-------------------------|

e-|-----------------------------|
B-|-----------------------------|
G-|-------------------------7---|
D-|-6-6-6-6-6-6-6-6-5-5-5-5-7-8-|
A-|-6-6-6-6-6-6-6-6-5-5-5-5-5-8-|
E-|-4-4-4-4-4-4-4-4-3-3-3-3---6-|

WakE Up AMerica

wake up america
be a good american
buy american
pledge your next car to be american

oh what a bunch of shit
nazi propaganda
thanks to crap like that
i've got a cruise missile in my backyard

transcribed by rambozo jjm@nucleus.com
Related for Wake Up America tab