Song name
# A B C D E F G H I J K L M N O P Q R S T U V W X Y Z

Daylight - Sinking tab

Daylight
Sinking

Half Step Down Tuning

FIGURE STRUM PATTERNS YOURSELF!

Intro:
---------------------------------|
---------------------------------|
---------------------------------|
---------------------------------|
---------------------------------|
--7--------------3---------------|

---------------------------------|
---------------------------------|
---------------------------------|
---------------------------------|
---------------------------------|
--7--------------3-----------55--|


Verse:
---------------------------------|
---------------------------------|
---------------------------------|
--9--------------5---------------|
--9--------------5---------------|
--7--------------3---------------|


Chorus:
---------------------------------|
---------------------------------|
---------------------------------|
--12------9------5---------------|
--12------9------5---------------|
--10------7------3---------------|


Bridge:
-----------|
-----------|
-----------|
-----------|
--7-5-5-0--|
-----------|

-----------------------------------|
-----------------------------------|
-----------------------------------|
-----------------------------------|
------5---5-----5---5-----5-4-4-0--|
--7-7---7---7-7---7---7-7----------|

-----------------------------------|
-----------------------------------|
-----------------------------------|
-----------------------------------|
------5---5-----5---5-----5-7-7-0--|
--3-3---3---3-3---3---3-3----------|


http://www.myspace.com/daylightpa
Tap to rate this tab
 
# A B C D E F G H I J K L M N O P Q R S T U V W X Y Z