Song name
# A B C D E F G H I J K L M N O P Q R S T U V W X Y Z

Daylight - Selfish tab

Selfish/Tart
Daylight
Dispirit

Half Step Down Tuning

You will need to figure out strum patterns yourself.

Soft intro.

------------------------------------|
----55--55--55--55--55--55--55--55--|
----66--66--66--66--66--66--66--66--|
----66--66--66--66--66--66--66--66--|
--4444444444444444444444444444------|
------------------------------4444--|

------------------------------------|
----55--55--55--55--55--55--55--55--|
----66--66--66--66--66--66--66--66--|
----66--66--66--66--66--66--66--66--|
--0000000000000000000000000000------|
------------------------------4444--|


Bit of dist. Feel free to play this part a little sloppier.

------------------------------------|
----55--55--55--55--55--55--55--55--|
----66--66--66--66--66--66--66--66--|
----66--66--66--66--66--66--66--66--|
--4444444444444444444444444444------|
------------------------------4444--|

------------------------------------|
----55--55--55--55--55--55--55--55--|
----66--66--66--66--66--66--66--66--|
----66--66--66--66--66--66--66--66--|
--0000000000000000000000000000------|
------------------------------4444--|


Continue playing for the verses.

------------------------------------|
----55--55--55--55--55--55--55--55--|
----66--66--66--66--66--66--66--66--|
----66--66--66--66--66--66--66--66--|
--4444444444444444444444444444------|
------------------------------4444--|

------------------------------------|
----55--55--55--55--55--55--55--55--|
----66--66--66--66--66--66--66--66--|
----66--66--66--66--66--66--66--66--|
--0000000000000000000000000000------|
------------------------------4444--|


Repeat four times.

-----------|
-----------|
-----------|
--4--7--6--|
--4--7--6--|
--2--5--4--|


Chorus.

--------------------|
--------------------|
--6----9------------|
--6----9----4----7--|
--4----7----4----7--|
------------2----5--|


--------------------------------|
--------------------------------|
--6----9------------------------|
--6----9----44--444--4-764-246--|
--4----7----44--444--4-764-246--|
------------22--222--2-542-024--|


--------------------|
--------------------|
--6----9------------|
--6----9----4----7--|
--4----7----4----7--|
------------2----5--|


------------------------------|
------------------------------|
--6----9----------------------|
--6----9----44--444--4-764-2--|
--4----7----44--444--4-764-2--|
------------22--222--2-542-0--|


Piano-sounding part.

--------------------------------|
--------------------------------|
-----------6----4---------------|
--7--6--4-----------------------|
--------------------------------|
--------------------------------|


------------------------|
--4b(4)p0-2p0-----------|
---------------2----1b--|
------------------------|
------------------------|
------------------------|
Tap to rate this tab
 
# A B C D E F G H I J K L M N O P Q R S T U V W X Y Z