Song name
# A B C D E F G H I J K L M N O P Q R S T U V W X Y Z

Daylight - Two Of A Kind tab

Just the second part of the song.

eb|---------------------------------|
Bb|---------3-0---------0-------0---|
Gb|-----0-------0-----0---0---0---0-|
Db|-0-2---2-------2-----------------|
Ab|-----------------3-------5-------|
Eb|---------------------------------|

eb|---------------------------------|
Bb|---------030---------0-------0---|
Gb|-----0-------0-----0---0---0---0-|
Db|-0-2---2-------2-----------------|
Ab|-----------------3-------5-------|
Eb|---------------------------------|
Tap to rate this tab
 
# A B C D E F G H I J K L M N O P Q R S T U V W X Y Z