Song name
# A B C D E F G H I J K L M N O P Q R S T U V W X Y Z

Daylight - Not In My Life tab

Intro:
-----------------------|
-----------------------|
-----------------------|
-8-6-4.     --8-11-4-6-|
-8-6-4.     --8-11-4-6-|
-6-4-2 x2   --6-9--2-4-|

Verse 1 no guitar

After 1st verse:
--------------------|
--------------------|
--------------------|
-8-4-11-6.   4-4-6--|
-8-4-11-6.   4-4-6--|
-6-2-9--4.   2-2-4--|

Chorus:

----------------------------------------------------|
----------------------------------------------------|
----------------------------------------------------|
-8-4-11-6 -----------------------------------8-4-6--|
-8-4-11-6  ----------------------------------8-4-6--|
-6-2--9-4.     Repeat all along the chorus.  6-2-4--|

Verse 2:

--------------------|
--------------------|
--------------------|
-8-4-11-6.        8-|
-8-4-11-6.        8-|
-6-2--9-4-----------|        6 let ring

Chorus

Bridge:

-------------|
-------------|
-------------|
-8-4-11-6----|
-8-4-11-6----|
-6-2--9-4----|

Chorus

End:

---------------|
---------------|
---------------|
-8-6-8-6-4-----|
-8-6-8-6-4-----|
-6-4-6-4-2-----|   let ring
Tap to rate this tab
# A B C D E F G H I J K L M N O P Q R S T U V W X Y Z