Song name
# A B C D E F G H I J K L M N O P Q R S T U V W X Y Z

Days Away - T Klines Decline tab

Days Away
T. Kline's Decline
Mapping an Invisible World
Tabbed by Daniel Bolton (envyouraudience@hotmail.com)
Tuning: d A F C G D (down 1 step)2

Intro - Part A

|--------------0-4-2---------------------------------------|
|----5/4-0-2-4-------4-0---------4---------------4---------|
|----------------------------4------4---4---4-----4---4----|
|----------------------------------------------------------|
|----0-------------------0-2---2-----2---2---2-----2-------|
|----------------------------------------------------------|


Intro - Part B

|-----------0-4-2-----------------------2----------|
|-5/4-0-2-4-------4-0---------4------------5-4-----|
|-------------------------4-----4---4---------4----|
|--------------------------------------------------|
|-0-------------------0-2---2-----2---2------------|
|--------------------------------------------------|


Verse

|----------------------------------------------|
|----5p4-0--------5p4-0--2--0---------5p4-0----|
|----------------------------------------------|
|----------------------------2-----------------|
|----0---------4---------0---------0-----------|
|----------------------------------------------|


Pre-Chorus "Not because I want you to..."

|-----------------------|
|-----------------------|
|----2-2-2-2-2-2-2-2----|
|----2-2-2-2-2-2-2-2----|
|----0-0-0-0-0-0-0-0----|
|-----------------------|


Chorus (power chords):

|-----------------------------|
|-----------------------------|
|---------4-------------------|
|----2----4----4----6----7----|
|----2----2----4----6----7----|
|----0---------2----4----5----|

     D    A    Em   F#m  G


D
If I say this
                          A
It shouldn't matter if we both fall down
A
I was hoping now
     Em            F#m            G
That maybe I could make you come around


Verse


Break (But then I said I felt lucky...)

|-----------------------|
|-----------------------|
|----9-9-9-9-9-9-9-9----|
|-----------------------|
|----7-7-7-7-7-7-7-7----|
|-----------------------|


Then the Intro comes in again. The rhythm guitar just strums:

|-----------------------|
|-----------------------|
|-----------------------|
|----2-2-2-2-2-2-2-2----|
|----2-2-2-2-2-2-2-2----|
|----0-0-0-0-0-0-0-0----|

Bridge:
|------------------|
|------------------|
|----2--4--2--4----|
|----2--4--2--4----|
|----0--2--0--2----|
|------------------|


The outro is basically the same as the intro.


Listen to the song for order/arrangement.


Note: This is a by-ear transcription. It is not intended to replicate the artist's 
exactly. It is intended only for your personal use and enjoyment.
Tap to rate this tab
 
# A B C D E F G H I J K L M N O P Q R S T U V W X Y Z