Song name
# A B C D E F G H I J K L M N O P Q R S T U V W X Y Z

Days Away - Waking Up tab

Waking up is a song from Days Away's first and (in my opinion) best CD!
It's a pretty easy song to play, just listen and follow the song the first time you play 
and it sounds great.

Drop D Tuning

Intro/1st Verse
E|---2--0--x----------|
B|---2--0--x----------|
G|---2--0--5--  <-----| Repeat for the second verse too
D|---2--0--5----------|
A|---2--0--3----------|
D|---2--0--x----------|

Chorus
E|-5----x----5----2-0-x------x-----|
B|-5----x----5----2-0-x------x-----|
G|-5----5----5----2-0-5------9-7-5-|
D|-5----5----5----2-0-5------x-----|   Repeat
A|-5----3----5----2-0-3------x-----|
D|-5----x----5----2-0-x------x-----|

Bridge
E|-----|-----------------------|
B|-----|-----------------------|
G|-5-7-|---7--4--2--2-2-0-2h4p2| Repeat
D|-----|-----------------------|
A|-----|-----------------------|
D|-----|-----------------------|

Outro
E|-5----- 5----- 5----x----- x----- x----5-----              E|-2--0--x-|
B|-5----- 5----- 5----x----- x----- x----5-----              B|-2--0--x-|
G|-5----- 5----- 5----5----- 5----- 5----5-----              G|-2--0--5-| End
D|-5----- 5----- 5----5----- 5----- 5----5----- Repeat       D|-2--0--5-|
A|-5----- 5----- 5----3----- 3----- 3----5-----              A|-2--0--3-|
D|-5----- 5----- 5----x----- x----- x----5-----              D|-2--0--x-|

This is my first tab so the timing will be wrong here no doubt
but if you listen to the song you can easily grasp it with these chords.
All parts are repeated 2 times or more so you should understand it when you play!

I've also tabbed out the rest of "The Feel Of It EP" so if anyone wants anymore tabs 
free to email me on adamparker14@blueyonder.co.uk
Tap to rate this tab
 
# A B C D E F G H I J K L M N O P Q R S T U V W X Y Z