Song name
# A B C D E F G H I J K L M N O P Q R S T U V W X Y Z

Days Away - Raspberry Perfume tab

Artist: Days Away
Song: Raspberry Perfume
Tabs By: PunKSquIrrEl333
These tabs might be a little sketchy, but they get the job done. 
These notes are repeated for the whole song, there are very little variations
(mostly swaping notes and such).

E|--------------------------------------------------------|
B|--------------------------------------------------------|
G|-----------------0--------0--------0---0--0--0----------|
D|-------0-0--0------0-----0-4-2-4/5--5---5--5--5--0-0-0--|
A|--------0-0-2--------4/7----------5--5---5--5--5-0-0-0--|
E|----2--------------------------------------------2-2-2--|

E|--------------------------------------------------|
B|--------------------------------------------------|
G|-----------0--------0--------0---0--0--0----------|
D|-0-0--0------0-----0-4-2-4/5--5---5--5--5--0-0-0--|
A|--0-0-2--------4/7----------5--5---5--5--5-0-0-0--|
E|-------------------------------------------2-2-2--|

The second part is repeated through the whole song. I know that it's not perfect,
but I tried.
Tap to rate this tab
# A B C D E F G H I J K L M N O P Q R S T U V W X Y Z