Song name
# A B C D E F G H I J K L M N O P Q R S T U V W X Y Z

Days Away - God And Mars tab

Artist: Days Away
Song: God and Mars
Album: Mapping an invisible world
Tabbed by: JTalys

Intro: 

Guitar 1
e|--------------------------------------------|
B|--------------------------------------------|
G|-----------------5-5-5-5-5-5-5-5-5----------|
D|-3-3-3-3-3-3-3-2-5-5-5-5-5-5-5-5-5----------| X 4
A|-3-3-3-3-3-3-3-2-3-3-3-3-3-3-3-3-3----------|
E|-1-1-1-1-1-1-1-0----------------------------|

Guitar 2
e|--------------------------------------------|
B|---8---8-8---8-8-8--------------------------|
G|-9------------------7----9-----7------------|
D|--------------------------------------------| X 4
A|--------------------------------------------|
E|--------------------------------------------|

Verse 1:

Guitar 1
e|---------------------------------------------|
B|---------------------------------------------|
G|------------------5-5-5-5-5-5-5-5-5p---------|
D|-3-3-3-3-3-3-3-2p-5-5-5-5-5-5-5-5-5p---------| X 4
A|-3-3-3-3-3-3-3-2p-3-3-3-3-3-3-3-3-3p---------|
E|-1-1-1-1-1-1-1-0p----------------------------|
“I can’t get my mind to stop running” 

Pre-chorus 1:

Guitar 1
e|--------------------------------------------|
B|--------------------------------------------|
G|--------------------------------------------|
D|-2----------------3-3-3-3-3-3-3-3-----------| X 1
A|-2----------------3-3-3-3-3-3-3-3-----------|
E|-0----------------1-1-1-1-1-1-1-1-----------|

Guitar 2
e|--------------------------------------------|
B|-------7-------------8--8--8--8--8—-8-------|
G|-9---------9------10-10-10-10-10-10-10------|
D|-9--9-------------10-10-10-10-10-10-10------| X 1
A|-7----------------8-------------------------|
E|--------------------------------------------|
“’Cause in, my mind I’ll work it out” 

Chorus 1:

Guitar 1
e|-------------------------------------------------------------------|
B|-------------------------------------------------------------------|
G|-5-5-5-5-5-5-5-5-----------------2-2-2-2-2-2-2-2-------------------|
D|-5-5-5-5-5-5-5-5-2-2-2-2-2-2-2-2-2-2-2-2-2-2-2-2-3-3-3-3-3-3-3-3---|
A|-3-3-3-3-3-3-3-3-2-2-2-2-2-2-2-2-0-0-0-0-0-0-0-0-3-3-3-3-3-3-3-3---|
E|-----------------0-0-0-0-0-0-0-0-----------------1-1-1-1-1-1-1-1---|
				“I’m in a better place…” 





e|-------------------------------------------------------------------|
B|-------------------------------------------------------------------|
G|-5-5-5-5-5-5-5-5-5-5-5-5-5-5-5-5-----------------------------------|
D|-5-5-5-5-5-5-5-5-5-5-5-5-5-5-5-5-2---------------3-3-3-3-3-3-3-3---| X 1
A|-3-3-3-3-3-3-3-3-3-3-3-3-3-3-3-3-2---------------3-3-3-3-3-3-3-3---|
E|---------------------------------0---------------1-1-1-1-1-1-1-1---|
					  “I’ve had enough…” 

Guitar 2 let ring
e|---------------------------------------------------(1)--(3)--(1)---|
B|(10)-(12)-(10)----10---12---10-----10---12---10--------------------|
G|-------------------------------------------------------------------|
D|-------------------------------------------------------------------| 
A|-------------------------------------------------------------------|
E|-------------------------------------------------------------------|

(I think it joins guitar 1 the second time)
e|-------------------------------------------------------------------|
B|-------------------------------------------------------------------|
G|-5-5-5-5-5-5-5-5---------------------------------------------------|
D|-5-5-5-5-5-5-5-5-2-2-2-2-2-2-2-2-2---------------3-3-3-3-3-3-3-3---| X 1
A|-3-3-3-3-3-3-3-3-2-2-2-2-2-2-2-2-2---------------3-3-3-3-3-3-3-3---|
E|-----------------0-0-0-0-0-0-0-0-0---------------1-1-1-1-1-1-1-1---|

Verse 2:

Guitar 1
e|---------------------------------------------|
B|---------------------------------------------|
G|------------------5-5-5-5-5-5-5-5-5p---------|
D|-3-3-3-3-3-3-3-2p-5-5-5-5-5-5-5-5-5p---------| X 4
A|-3-3-3-3-3-3-3-2p-3-3-3-3-3-3-3-3-3p---------|
E|-1-1-1-1-1-1-1-0p----------------------------|
“I can't get my mind to stop trading spaces”

Pre-chorus 1:

Guitar 1
e|--------------------------------------------|
B|--------------------------------------------|
G|--------------------------------------------|
D|-2----------------3-3-3-3-3-3-3-3-----------| X 1
A|-2----------------3-3-3-3-3-3-3-3-----------|
E|-0----------------1-1-1-1-1-1-1-1-----------|

Guitar 2
e|--------------------------------------------|
B|-------7-------------8--8--8--8--8—-8-------|
G|-9---------9------10-10-10-10-10-10-10------|
D|-9--9-------------10-10-10-10-10-10-10------| X 1
A|-7----------------8-------------------------|
E|--------------------------------------------|
“’Cause in, my mind I’ll work it out” 

Chorus 2:

Guitar 1
e|-------------------------------------------------------------------|
B|-------------------------------------------------------------------|
G|-5-5-5-5-5-5-5-5-----------------2-2-2-2-2-2-2-2-------------------|
D|-5-5-5-5-5-5-5-5-2-2-2-2-2-2-2-2-2-2-2-2-2-2-2-2-3-3-3-3-3-3-3-3---| 
A|-3-3-3-3-3-3-3-3-2-2-2-2-2-2-2-2-0-0-0-0-0-0-0-0-3-3-3-3-3-3-3-3---|
E|-----------------0-0-0-0-0-0-0-0-----------------1-1-1-1-1-1-1-1---|
				“I’m in a better place…” 






e|-------------------------------------------------------------------|
B|-------------------------------------------------------------------|
G|-5-5-5-5-5-5-5-5-5-5-5-5-5-5-5-5-----------------------------------|
D|-5-5-5-5-5-5-5-5-5-5-5-5-5-5-5-5-2---------------3-3-3-3-3-3-3-3---| X 1
A|-3-3-3-3-3-3-3-3-3-3-3-3-3-3-3-3-2---------------3-3-3-3-3-3-3-3---|
E|---------------------------------0---------------1-1-1-1-1-1-1-1---|
					  “I’ve had enough…” 

Guitar 2 let ring
e|----------------------------------------------------1---3---1------|
B|(10)-(12)-(10)----10---12---10-----10---12---10--------------------|
G|-------------------------------------------------------------------|
D|-------------------------------------------------------------------| 
A|-------------------------------------------------------------------|
E|-------------------------------------------------------------------|

								Let ring 
e|-------------------------------------------------------------------|
B|---------------------------------------------------10---12---10----|
G|-5-5-5-5-5-5-5-5---------------------------------------------------|
D|-5-5-5-5-5-5-5-5-2-2-2-2-2-2-2-2-2---------------------------------| X 1
A|-3-3-3-3-3-3-3-3-2-2-2-2-2-2-2-2-2---------------------------------|
E|-----------------0-0-0-0-0-0-0-0-0---------------------------------|

Pre-Bridge

Guitar 1 
e|-------------------------------------------------------------------|
B|-------------------------------------------------------------------|
G|-5-----------------------------------------------------------------|
D|-5-----------------------------------------------------------------| X 1
A|-3-----------------------------------------------------------------|
E|-------------------------------------------------------------------|

Guitar 2
e|-------------------------------------------------------------------|
B|-------------------------------------------------------------------|
G|-5-----------------------------------------------------------------|
D|-5-----------------------------------------------------------------| X 1
A|-3-----------------------------------------------------------------|
E|-------------------------------------------------------------------|

Bridge	   (There are actually no guitars during the bridge)

Guitar 2 let ring
e|-------------------------------------------------------------------|
B|-------------------------------------------------------------------|
G|-------------------------------------------------------------------|
D|-------------------------------------------------------------------| 
A|-------------------------------------------------------------------|
E|-8---------------5----------------0--------------------------------|
“I’m thinking that this isn’t real” 

e|-------------------------------------------------------------------|
B|-------------------------------------------------------------------|
G|-------------------------------------------------------------------|
D|-------------------------------------------------------------------| X 2
A|-------------------------------------------------------------------|
E|-1---------------8----------------0--------------------------------|
“But I’m not concerned”









Pre-chorus 3:

Guitar 1
e|--------------------------------------------|
B|--------------------------------------------|
G|--------------------------------------------|
D|-2----------------3-3-3-3-3-3-3-3-----------| X 1
A|-2----------------3-3-3-3-3-3-3-3-----------|
E|-0----------------1-1-1-1-1-1-1-1-----------|

Guitar 2
e|--------------------------------------------|
B|---------------------8--8--8--8--8—-8-------|
G|-9-9-9-9-9-9-9-9--10-10-10-10-10-10-10------|
D|-9-9-9-9-9-9-9-9--10-10-10-10-10-10-10------| X 1
A|-7-7-7-7-7-7-7-7--8-------------------------|
E|--------------------------------------------|
“In my mind, I’ll work this out” 

Chorus 3:

Guitar 1
e|-------------------------------------------------------------------|
B|-------------------------------------------------------------------|
G|-5-5-5-5-5-5-5-5-----------------2-2-2-2-2-2-2-2-------------------|
D|-5-5-5-5-5-5-5-5-2-2-2-2-2-2-2-2-2-2-2-2-2-2-2-2-3-3-3-3-3-3-3-3---| 
A|-3-3-3-3-3-3-3-3-2-2-2-2-2-2-2-2-0-0-0-0-0-0-0-0-3-3-3-3-3-3-3-3---|
E|-----------------0-0-0-0-0-0-0-0-----------------1-1-1-1-1-1-1-1---|
“This is changed…			I never saw it coming”

e|-------------------------------------------------------------------|
B|-------------------------------------------------------------------|
G|-5-5-5-5-5-5-5-5-5-5-5-5-5-5-5-5-----------------------------------|
D|-5-5-5-5-5-5-5-5-5-5-5-5-5-5-5-5-2-2-2-2-2-2-2-2-3-3-3-3-3-3-3-3---| X 2
A|-3-3-3-3-3-3-3-3-3-3-3-3-3-3-3-3-2-2-2-2-2-2-2-2-3-3-3-3-3-3-3-3---|
E|---------------------------------0-0-0-0-0-0-0-0-1-1-1-1-1-1-1-1---|
“Your lips keep moving…”

Guitar 2 let ring
e|----------------------------------------------------1---3---1------|
B|(10)-(12)-(10)----10---12---10-----10---12---10--------------------|
G|-------------------------------------------------------------------|
D|-------------------------------------------------------------------|  
A|-------------------------------------------------------------------|
E|-------------------------------------------------------------------|

					     Let ring 
e|-------------------------------------------------------------------|
B|-----------------------------------10---12---10-----1---3---1------|
G|-5-5-5-5-5-5-5-5---------------------------------------------------|
D|-5-5-5-5-5-5-5-5-2-2-2-2-2-2-2-2-2---------------------------------| X 1
A|-3-3-3-3-3-3-3-3-2-2-2-2-2-2-2-2-2---------------------------------|
E|-----------------0-0-0-0-0-0-0-0-0---------------------------------|


e|-------------------------------------------------------------------|
B|-------------------------------------------------------------------|
G|-5-5-5-5-5-5-5-5-----------------2-2-2-2-2-2-2-2-------------------|
D|-5-5-5-5-5-5-5-5-2-2-2-2-2-2-2-2-2-2-2-2-2-2-2-2-3-3-3-3-3-3-3-3---| 
A|-3-3-3-3-3-3-3-3-2-2-2-2-2-2-2-2-0-0-0-0-0-0-0-0-3-3-3-3-3-3-3-3---|
E|-----------------0-0-0-0-0-0-0-0-----------------1-1-1-1-1-1-1-1---|





e|-------------------------------------------------------------------|
B|-------------------------------------------------------------------|
G|-5-5-5-5-5-5-5-5-5-5-5-5-5-5-5-5-----------------------------------|
D|-5-5-5-5-5-5-5-5-5-5-5-5-5-5-5-5-2-2-2-2-2-2-2-2-3-3-3-3-3-3-3-3---| X 2
A|-3-3-3-3-3-3-3-3-3-3-3-3-3-3-3-3-2-2-2-2-2-2-2-2-3-3-3-3-3-3-3-3---|
E|---------------------------------0-0-0-0-0-0-0-0-1-1-1-1-1-1-1-1---|


Verse 1
I can't get my mind to stop running
I can't say I'm able
I can't get my mind to stop spinning around
Don't show me I am able

Pre-chorus 1
'Cause in my mind I'll work it out.

Chorus 1
I'm in a better place
Don't take this and turn it around
I've had enough 
Don't speak, don't make a sound.

Verse 2
I can't get my mind to stop trading spaces
and face this lonely happy me
I take my time - all my time
and I close my eyes

Pre-chorus 2
'Cause in my mind I'll work it out.

Chorus 2
I'm in a better place 
Don't take this and turn it around
I've had enough 
Don't speak, don't make a sound

Bridge
I'm thinking that this isn't real
But I'm not concerned.
I feel the best when you're not here
But I never learned.
I never learned.

Pre-chorus 3
In my mind I'll work this out.

Chorus 3
This is changed, this is shame, I never saw it coming. 
Your lips keep moving but you're saying nothing.
I'm in a better place, 
Don't take this and turn it around.
I've had enough 
Don't speak, don't make a sound.
Tap to rate this tab
 
# A B C D E F G H I J K L M N O P Q R S T U V W X Y Z