Song name
# A B C D E F G H I J K L M N O P Q R S T U V W X Y Z

Days Of Our Life - 3dg3 C0114p53 20 tab

                                    Days Of Our Life
                                   3DG3 C0114P53 2.0

www.facebook.com/daysofourlife
play It:
00:00-00:08; 00:39-00:59 (You see the pain of life...)       
D||--------0--------0--------|--------0--------0-----8--||
A||-----6--------6--------6--|-----6--------6-----------||
F||--7--------7--------7-----|--7--------7--------7-----||
C||--------------------------|--------------------------||
G||--------------------------|--------------------------||
C||--------------------------|--------------------------||
Chorus:
00:56-01:28 (I know you're broken, but hold on...) 
D||-------------------------|--------------------------|
A||-------6-----6-----------|-----5--------------------|
F||----------9-----9-----5--|--L-----5--5--7--7--7--7--|
C||--0----------------0-----|--------------------------|
G||--0----------------------|--------------------------|
C||--0----------------------|--------------------------|


    
----------------------------------|----------------------------------||
--10--10--10--10--10--10--10--10--|--10--10--10--10--10--10--10--10--||
----------------------------------|----------------------------------||
---8---8---8---8---8---8---8---8--|---8---8---8---8---8---8---8---8--||X2
---8---8---8---8---8---8---8---8--|---8---8---8---8---8---8---8---8--||
---8---8---8---8---8---8---8---8--|---8---8---8---8---8---8---8---8--||
Chorus:
01:59-02:32 (Now feelings collide...)  
D||--------------------------|--------------------------|
A||--------------------------|--------------------------|
F||--------------------------|--------------------------|
C||--------------------------|--------8-----8-----8-----|
G||--------8-----8-----8-----|--------------------------|
C||--8--8-----8-----8-----8--|--5--5-----5-----5-----5--|

 
--------------------------|---------------------------||
--------------------------|---------------------------||
--------------------------|---------------------------||
--------3-----3-----3-----|--3-----3------------------||X2
--0--7-----7-----7-----7--|-----7-----7-----10-----8--||
--0-----------------------|--------------8------5-----||
BREAKDOWN1:
02:47-03:19 (So give me some strength...) 
D||----------------------------------------------|
A||----------------------------------------------|
F||----------------------------------------------|
C||----------------------------------------------|
G||--0--0--0----0--0--0----0--0--0----0--0--0----|
C||--0--0--0----0--0--0----0--0--0----0--0--0----|

 
-------------------------------------------||
-------------------------------------------||
-------------------------------------------||
-------------------------------------------||X8
------0----0----0----0--0--0----0--0--0----||
------0----0----0----0--0--0----0--0--0----||
BREAKDOWN2:
03:20-03:38  (...OHH!!!)
A||-------------------------------------------|
F||-------------------------------------------|
C||-------------------------------------------|
G||--0--0--0--------0--0--0--------0--0--0----|
C||--0--0--0--------0--0--0--------0--0--0----|

 
-------------------------------------------||
-------------------------------------------||
-------------------------------------------||
-------------------------------------------||X2 (;
------0--0--0--------0--0--0----0--0--0----||
------0--0--0--------0--0--0----0--0--0----||
Tap to rate this tab
# A B C D E F G H I J K L M N O P Q R S T U V W X Y Z