Guitaretab - guitar tabs
Song name
# A B C D E F G H I J K L M N O P Q R S T U V W X Y Z

Days Of The New - Die Born tab

Author/Artist: Days of the New
Title: Die Born
Album: Days of the New 3
Transcribed by:Tw
Email:tewells27@yahoo.com

Tuning: Db Ab Db Gb Bb Db

Any comments or corrections please email me.

-0-----0---------------------------0---------------2p0---|-0-----4p0---0-----|
-3-----------------------------0-----------1-3p1-------3-|-3-----------------|
-2-0h2-----2-------0h2p0---------4-----------------------|-2-0h2-------------|
-0-------0---5p4h5-------4p0---------------------0-------|-0---------0-------|
-0---------------------------2-------0h2h3---------------|-0-----------------|
-0-------------------------------------------------------|-0-----------------|
 Intro riff

-5h7p5\4h5p4\2h4p2p0-------------2\4-0----------|----------------------------|
-----------------------0---3-----------3--------|----------------------------|
-------------------------0---4------------------|----------------------------|
-----------------------------------------0----0-|----------------------------|
---------------------2---------3----------------|----------------------------|
-------------------------------------------3b---|----------------------------|
                                Intro riff ends

-|-0-----0---------------------------0---------------2p0---|-0-----4p0---0---|
-|-3-----------------------------0-----------1-3p1-------3-|-3---------------|
-|-2-0h2-----2-------0h2p0---------4-----------------------|-2-0h2-----------|
-|-0-------0---5p4h5-------4p0---------------------0-------|-0---------0-----|
-|-0---------------------------2-------0h2h3---------------|-0---------------|
-|-0-------------------------------------------------------|-0---------------|
 Verse riff starts
[ Tab from: http://www.guitaretab.com/d/days-of-the-new/102219.html ]
---------------------0-------0----------|------------------------------------|
---------------------3-----1---1--------|------------------------------------|
-------0h2p0-------0---0---------0------|------------------------------------|
-5p4h5-------4p0----------------------0-|------------------------------------|
-----------------2-------3--------------|------------------------------------|
-----------------------------------3b---|------------------------------------|
                        Verse riff ends

-|-0---0-0-0-0-0-0-0-0-0--------------------------|--------------------------|
-|-3---3-3-3-3-3-3-3-3-3--------------------------|--------------------------|
-|-2---2-2-2-2-2-2-2-2-2-----7----7-7-7-7---5---5-|--------------------------|
-|-0---0-0-0-0-0-0-0-0-0-----5----5-5-5-5---5---5-|--------------------------|
-|-0---0-0-0-0-0-0-0-0-0-----5----5-5-5-5---3---3-|--------------------------|
-|-0---0-0-0-0-0-0-0-0-0-----5----5-5-5-5---------|--------------------------|
   Chorus riff starts           Chorus riff ends

-|-------0-------------0-------------0-------------0-------|-----------------|
-|---------------------------------------------------------|-----------------|
-|---0-----0---0---0-----0---0---0-----0---0---0-----0---0-|-----------------|
-|-----0-----0-------0-----0-------0-----0-------0-----0---|-----------------|
-|---------------------------------------------------------|-----------------|
-|-5-------------3-------------5-------------3-------------|-----------------|
   Chorus outro starts                Chorus outro ends

-|-------------------------------------------------------|-------------------|
-|-------------------------------------------------------|-------------------|
-|----------------------------------------4-4-4-4--5-5-5-|-------------------|
-|-----3--0----------3--0-----------3--0--4-4-4-4--5-5-5-|-------------------|
-|-3p0-3--0------3p0-3--0-------2p0-3--0--2-2-2-2--3-3-3-|-------------------|
-|-----3--0----------3--0-----------3--0-----------------|-------------------|
   Heavy bridge riff starts     Heavy bridge riff ends

-|-------------------0---0-|-------------------------------------------------|
-|-------------------3---3-|-------------------------------------------------|
-|----------5---5----2---2-|-------------------------------------------------|
-|-5---5----5---5----0---0-|-------------------------------------------------|
-|-5---5----3---3----0---0-|-------------------------------------------------|
-|-5---5-------------0---0-|-------------------------------------------------|
   Outro
Related for Die Born tab
Die Born chords by Days Of The New