Guitaretab - guitar tabs
Song name
# A B C D E F G H I J K L M N O P Q R S T U V W X Y Z

Days Of The New - Bring Me Down tab

Song: Bring me down
Artist: Days of the new
Tabbed by: Trevor Organ ( trevtones@hotmail.com )

Eb standard tuning


intro 3x then the alternate ending

Eb-------------------------------------|-----0---------------|
Bb------------------------------0------|-------0-------------|
Gb---2----------2-------------2---2----|---------2-4-2-------|
Db--------------------------3----------|---2-----------------|
Ab-0----------0------------------------|-2-------------------|
Eb-----0-0-3-------0-0-3-1-----------0-|---------------------|


intro ending ( strum the chord one string at atime )

Eb---0--|
Bb---0--|
Gb---2--|
Db---2--|
Ab---0--|
Eb-0----|

Pre-Verse 2x ( I know theres more but frankly im too tired to pick it up! )
                                        1st ending          2nd ending
Eb-------------------------------------|-------------------|---------|
Bb-------------------------------------|-------------------|---0-----|
Gb-------------------------------------|-------------------|-----2---|
Db-7-x-5-5-5-5/7-x-5-5-5-5/7-x-5-5-x-3-|-3-3-3-3-3-3/5/7---|-3-----2-|
Ab-7-x-5-5-5-5/7-x-5-5-5-5/7-x-5-5-x-3-|-3-3-3-3-3-3/5/7---|-3-------|
Eb-5-x-3-3-3-3/5-x-3-3-3-3/5-x-3-3-x-1-|-1-1-1-1-1-1/3/5---|-1-------|

Verse 4x

Eb----------------------------------------|
Bb----------------------------------------|
Gb----------------------------------------|
Db-7-x-5-5-5/7-x-5-5-x-3-3-3-3-3-3-3/5/7--|
Ab-7-x-5-5-5/7-x-5-5-x-3-3-3-3-3-3-3/5/7--|
Eb-5-x-3-3-3/5-x-3-3-x-1-1-1-1-1-1-1/3/5--|

Chorus 1x
[ Tab from: http://www.guitaretab.com/d/days-of-the-new/131534.html ]
Eb-------------------------------------------------------|
Bb-------------------------------------------------------|
Gb-------------------------------------------------------|
Db-7-x-7-7-7-7-x-5-x-5-5-5-5-x-2-x-2-2-2-2-2-2-2-2-x-7---|
Ab-7-x-7-7-7-7-x-5-x-5-5-5-5-x-2-x-2-2-2-2-2-2-2-2-x-7---|
Eb-5-x-5-5-5-5-x-3-x-3-3-3-3-x-0-x-0-0-0-0-0-0-0-0-x-5---|

Eb-------------------------------------------------------|
Bb-------------------------------------------------------|
Gb-------------------------------------------------------|
Db-7-x-7-7-7-7-x-5-x-5-5-5-5-x-3-3-3-3-3-3-3-3-----------|
Ab-7-x-7-7-7-7-x-5-x-5-5-5-5-x-3-3-3-3-3-3-3-3-----------|
Eb-5-x-5-5-5-5-x-3-x-3-3-3-3-x-1-1-1-1-1-1-1-1-----------|

Intro  2x
Verse  4x
Chorus 1x ( repeat last chord as necessary - listen to song )
Intro  2x

Fill   4x
                1st 2x                  
Eb---------------------------------|
Bb---------------------------------|
Gb---------------------------------|
Db-5-5-5-5-5-5-5-5-3-3-3-3-3-3-3-3-|
Ab-5-5-5-5-5-5-5-5-3-3-3-3-3-3-3-3-|
Eb-3-3-3-3-3-3-3-3-1-1-1-1-1-1-1-1-|
               
               2nd 2x                                        Alt. End
Eb-----------------------------------------------------------|-------|
Bb-----------------------------------------------------------|-------|
Gb-----------------------------------------------------------|-------|
Db-5-x-5-5-5-5-x-5-5-x-5-5-5-5-x-3-x-3-3-3-3-x-3-3-x-3-3-3-3-|-3/5/7-|
Ab-5-x-5-5-5-5-x-5-5-x-5-5-5-5-x-3-x-3-3-3-3-x-3-3-x-3-3-3-3-|-3/5/7-|
Eb-3-x-3-3-3-3-x-3-3-x-3-3-3-3-x-1-x-1-1-1-1-x-1-1-x-1-1-1-1-|-1/3/5-|

Chorus 4x

Ending ( let ring out )

Eb-0-|
Bb-0-|
Gb-2-|
Db-2-|
Ab-0-|
Eb---|


This is my first tab in a long time but I leart this song and I couldn't resist!It's
like 99.9% correct guaranteed.......Enjoy!
Related for Bring Me Down tab
Bring Me Down chords by Days Of The New