Song name
# A B C D E F G H I J K L M N O P Q R S T U V W X Y Z

Days Of The New - Shelf In The Room tab

"Shelf in the Room" by Days of the New
Written by Travis Meeks

legend:

/ - slide
p - pulloff
h - hammer
b - bend
dt- dont let ring(stop the sound with the same hand you use the pick)
bp - bend after pulloff

Tuning: Db-Ab-Db-Gb-Bb-Db

Guit.I
|-------------------------------------------------------------------0-|
|---------------------------------------------------------------------|
|---2-----2-------4-----4---5p4---4---2-----2-------4-----4---5p4-----|
|-----0-----0-------0-----------0-------0-----0-------0-----------0---|
|---------------------------------------------------------------------|
|-0-----3-----3/5-----5---5---------0-----3-----3/5-----5---5---------|

Guit.I
|---------------------------------------------------------------------|
|---------------------------------------------------------------------|
|---2-----2-------4-----4---5p4---4---2-----2-------4-----------------|
|-----0-----0-------0-----------0-------0-----0-------0---0----0---0--|
|---------------------------------------------------------------------|
|-0-----3-----3/5-----5---5---------0-----3-----3/5-----5---55---3----|

Guit.I & Guit.II				   Guit.I & Guit.II	 Guit.II
|---------0-------------------------|              |-0-dt-0-0-0-------||---------------|
|---3-------3-----0-----------------|           |-3-dt-3-0-0-------||------------------|
|-----2-------------4---4---5p4---4-|               |-2-dt-2-0-4-------||--------------|
|-------------------------------0---| play x3 then |-0-dt-0-0-0-------||------0---0----|
|-----------------------------------|            |-0-dt-0-0-5-------||-----------------|
|-0-----3-----3/5-----5---5---------|            |-0-dt-3-0-5-------||-55-5---3--------|

Guit.I
|-------------------------------------------------------------------0-|
|---------------------------------------------------------------------|
|---2-----2-------4-----4---5p4---4---2-----2-------4-----4---5p4-----|
|-----0-----0-------0-----------0-------0-----0-------0-----------0---|
|---------------------------------------------------------------------|
|-0-----3-----3/5-----5---5---------0-----3-----3/5-----5---5---------|

Guit.I
|---------------------------------------------------------------------|
|---------------------------------------------------------------------|
|---2-----2-------4-----4---5p4---4---2-----2-------4-----------------|
|-----0-----0-------0-----------0-------0-----0-------0---0----0---0--|
|---------------------------------------------------------------------|
|-0-----3-----3/5-----5---5---------0-----3-----3/5-----5---55---3----|

Guit.I
|-0---0---0-----------------------------------------------------------------| \
|-3---3---0----------------|------------------------------------------------|
|-2---2---4----------------|------------------------------------------------|
|-0---0---0----------------|------------------------------------------------|            
& Guit.II    Guit.II
|-0---0---5----------------| |              |-0-dt-0-0-0-------||-----------|
|-0---3---5----------------| |          |-3-dt-3-0-0-------||---------------|
|Guit.II                 | play x3 then |-2-dt-2-0-4-------||---------------|
|--------------------------| |            |-0-dt-0-0-0-------||------0---0--|
|--------------------------| |             |-0-dt-0-0-5-------||------------|
|--4---4---4---4---4---4---| |            |-0-dt-3-0-5-------||-55-5---3----|
|---0---0---0---0---0---0--|------------------------------------------------|
|-5---5---5---5---5---5----|------------------------------------------------|
|---------------------------------------------------------------------------| /

Guit.I & Guit.II
|-------------------------------------------------------------------|
|-------------------------------------------------------------------|
|---2-----2-------4------------------2-----2-------4----------------|
|-----0-----0-------0---0----0---0-----0-----0-------0---0----0---0-|
|-------------------------------------------------------------------|
|-0-----3-----3/5-----5---55---5---0-----3-----3/5-----5---55---3---|

Guit.I & Guit.II
|--------------------------------------------------------------------|
|--------------------------------------------------------------------|
|---2-----2-------4-----4---5p4---4---2-----2-------4----------------|
|-----0-----0-------0-----------0-------0-----0-------0---0---0----0-|
|--------------------------------------------------------------------|
|-0-----3-----3/5-----5---5---------0-----3-----3/5-----5---55---3---|

Guit.I & Guit.II				   Guit.I & Guit.II
|---------0-------------------------|              |-0-dt-0-0-0----------|
|---3-------3-----0-----------------|           |-3-dt-3-0-0-------------|
|-----2-------------4---4---5p4---4-|               |-2-dt-2-0-4---------|
|-------------------------------0---| play x3 then |-0-dt-0-0-0----------|
|-----------------------------------|            |-0-dt-0-0-5------------|
|-0-----3-----3/5-----5---5---------|            |-0-dt-3-0-5------------|

Guit.I & Guit.II
|-0-dt-0-0-0--0-7--0-0-0-0-0-|
|-3-dt-3-0-0--0-0--0-0-0-0-0-|
|-2-dt-2-0-4--4-4--4-4-4-4-0-| play x8
|-0-dt-0-0-0--0-0--0-0-0-0-0-|
|-0-dt-0-0-5--5-5--5-5-5-5-0-|
|-0-dt-3-0-5--5-5--5-5-5-5-0-|

Guit.I					     Guit.I
|-0---0---0----------------| \            |-0---0-------|
|-3---3---0----------------| |            |-3---3-------|
|-2---2---4----------------| |            |-2---2-------|
|-0---0---0----------------| |            |-0---0-------|
|-0---0---5----------------| |              |-0---0-----|
|-0---3---5----------------| |          |-0---3---------|
|Guit.II	             | play x3 then |Guit.II
|--------------------------| |            |------------|
|--------------------------| |             |-----------|
|--4---4---4---0---4---4---| |            |--4---4-----|
|---0---0---0---4---0---0--| |            |---0---0----|
|-5---5---5---5---5---5----| |            |-5---5------|
|--------------------------| /            |------------|

Guit.I		  					   Guit.I & Guit.II	 Guit.II
|-----------------------------------|              |-0-dt-0-0-0-------||---------------|
|---2-----2-------------------------|           |-3-dt-3-0-0-------||------------------|
|-----0-----0-----4-----4---5p4---4-|               |-2-dt-2-0-4-------||--------------|
|-------------------0-----------0---| play x3 then |-0-dt-0-0-0-------||------0---0----|
|-----------------------------------|            |-0-dt-0-0-5-------||-----------------|
|-0-----3-----3/5-----5---5---------|            |-0-dt-3-0-5-------||-55-5---3--------|

Guit.I & Guit.II
|-------------------------------------------------------------------|
|-------------------------------------------------------------------|
|---2-----2-------4------------------2-----2-------4----------------|
|-----0-----0-------0---0----0---0-----0-----0-------0---0----0---0-|
|-------------------------------------------------------------------|
|-0-----3-----3/5-----5---55---5---0-----3-----3/5-----5---55---3---|

Guit.I & Guit.II
|--------------------------------------------------------------------|
|--------------------------------------------------------------------|
|---2-----2-------4-----4---5p4---4---2-----2-------4----------------|
|-----0-----0-------0-----------0-------0-----0-------0---0---0----0-|
|--------------------------------------------------------------------|
|-0-----3-----3/5-----5---5---------0-----3-----3/5-----5---55---3---|

Guit.I & Guit.II                                     Guit.I & Guit.II
|---------0-------------------------|             |-0-dt-0-0-0--0-7--0-0-0-0-0-------|
|---3-------3-----0-----------------|             |-3-dt-3-0-0--0-0--0-0-0-0-0-------|
|-----2-------------4---4---5p4---4-|                 |-2-dt-2-0-4--4-4--4-4-4-4-0---|
|-------------------------------0---| play x3 then   |-0-dt-0-0-0--0-0--0-0-0-0-0----|
|-----------------------------------|                 |-0-dt-0-0-5--5-5--5-5-5-5-0---|
|-0-----3-----3/5-----5---5---------|                 |-0-dt-3-0-5--5-5--5-5-5-5-0---|

Guit.I & Guit.II
|-0-dt-0-0-0--0-7--0-0-0-0-0-|
|-3-dt-3-0-0--0-0--0-0-0-0-0-|
|-2-dt-2-0-4--4-4--4-4-4-4-0-| play x8
|-0-dt-0-0-0--0-0--0-0-0-0-0-|
|-0-dt-0-0-5--5-5--5-5-5-5-0-|
|-0-dt-3-0-5--5-5--5-5-5-5-0-|

SOLO:

|-------------|-------------|---------|---------------------|---------|
|-------------|-------------|---------|---------------------|---------|
|-----------5-|-------------|---------|---------------------|---------|
|-----3-5/7---|-----3-5/7-5-|-3p0-3---|-3p0-----------------|-3/5-3-0-|
|-3-5---------|-3h5---------|-------5-|----3p0--------------|---------|
|-------------|-------------|---------|--------3p0-3/5-3-0--|---------|

|--------|-------------|--------------------------|-------------------------------------|
|-6-6--6-|-5h6---5h6---|--------------------------|-6-6--10--12--12bp10-----------------|
|-5-5--5-|-5---7-5---7-|-7-7p5---5----------------|-5-5--10--12--12bp10----10-----------|
|--------|-------------|-------7---7-5p3-5b---3---|---------------------12-----12p10-12-|
|--------|-------------|--------------------5---5-|-------------------------------------|
|--------|-------------|--------------------------|-------------------------------------|

Guit.I
|-0---0---0--------------------| \
|-3---3---0----------------|---|
|-2---2---4----------------|---|
|-0---0---0----------------|---|
|-0---0---5----------------|---|
|-0---3---5----------------|---|
|Guit.II	             | play x4
|--------------------------|---|
|--------------------------|---|
|--4---4---4---0---4---4---|---|
|---0---0---0---4---0---0--|---|
|-5---5---5---5---5---5----|---|
|------------------------------| /

Guit.I  					   Guit.I & Guit.II	 Guit.II
|-----------------------------------|              |-0-dt-0-0-0-------||---------------|
|---2-----2-------------------------|           |-3-dt-3-0-0-------||------------------|
|-----0-----0-----4-----4---5p4---4-|               |-2-dt-2-0-4-------||--------------|
|-------------------0-----------0---| play x3 then |-0-dt-0-0-0-------||------0---0----|
|-----------------------------------|            |-0-dt-0-0-5-------||-----------------|
|-0-----3-----3/5-----5---5---------|            |-0-dt-3-0-5-------||-55-5---3--------|

Guit.I
|-------------------------------------------------------------------0-|
|---------------------------------------------------------------------|
|---2-----2-------4-----4---5p4---4---2-----2-------4-----4---5p4-----|
|-----0-----0-------0-----------0-------0-----0-------0-----------0---|
|---------------------------------------------------------------------|
|-0-----3-----3/5-----5---5---------0-----3-----3/5-----5---5---------|

Guit.I
|------------------------------------------------------------------0--|
|------------------------------------------------------------------3--|
|---2-----2-------4-----4---5p4---4---2-----2----------------------2--|
|-----0-----0-------0-----------0-------0-----0-------------0---0--0--|
|------------------------------------------------------------------0--|
|-0-----3-----3/5-----5---5---------0-----3-----3/5----55-5---3----3--|
Tap to rate this tab
# A B C D E F G H I J K L M N O P Q R S T U V W X Y Z