Song name
# A B C D E F G H I J K L M N O P Q R S T U V W X Y Z

Daytrader - Grey-colored Glasses tab

---------------------------------------------------------------------------
                             GREY-COLORED GLASSES - Daytrader
---------------------------------------------------------------------------
Tabbed by: Mean Mr Mustard

Tuning: Half-Step Down

Figured Id go ahead and figure out more of this EP while Im out it. Heres the next song. 
Some leads were hard to hear, but the rhythm parts are correct.
http://runforcoverrecords.bandcamp.com/album/last-days-of-rome


INTRO:
eb|-------------------------------|----------------------------|
Bb|-------------------------------|----------------------------|
Gb|--------0--------------0-------|-------0-----0-----0--------|
Db|----2-----2---2----2-----2---2-|---2-----2------2-----2---2-|
Ab|-3----3-----3---3----3-----3---|----------------------------|
Eb|-------------------------------|-3---3-----3------3-----3---|

eb|------------------------------|------------------------------|
Bb|------------------------------|------------------------------|
Gb|-------0------------0---2h0---|-------0--------------0-------|
Db|---2-----2---2----2---2-----2-|---2--------2-----2-------2---|
Ab|------------------------------|-0---0----0---0---------------|
Eb|-1---1-----1---1--------------|----------------3---3---3---3-|


VERSE:
One guitar plays the above ^
Lead guitar messes around with these frets (too hard to hear)
eb|--------------------------------------------|
Bb|--------------------------------------------|
Gb|-9----7-/-5------------7-/-9--7--5~~--0~~---|
Db|-10----------7---------10-------------------|
Ab|--------------------------------------------|
Eb|--------------------------------------------|




PRE-CHORUS: x2
eb|-------------------------------------------------|
Bb|-------------------------------------------------|
Gb|-------------------------------------------------|
Db|-7-----------3----------5------------------------|
Ab|-7-----------3----------5------------------------|
Eb|-5-----------1----------3------------------------|
  |
eb|-------------------------------------------------|
Bb|-------------------------------------------------|
Gb|-------0-----------0-----------0----------2h0----|
Db|---2-----------2-----------2------------2-----2--|
Ab|-0---0-----0-------------------------------------|
Eb|-------------1---1----1--3---3----3---3----------|


Then repeat VERSE and PRE-CHORUS


CHORUS:
eb|-----------------------------------------------|
Bb|-----------------------------------------------|
Gb|-5---5---5--5-5--5-5-5-------------------------|
Db|-5---5---5--5-5--5-5-5--5---5---5--5-5--5-5-5--|
Ab|-3---3---3--3-3--3-3-3--5---5---5--5-5--5-5-5--|
Eb|------------------------3---3---3--3-3--3-3-3--|
  |
eb|-----------------------------------------------|
Bb|-----------------------------------------------|
Gb|-7---7---7--7/9--9-9-9--7---7---7--7/9--9-9-9--|
Db|-x---x---x--x-x--x-x-x--x---x---x--x-x--x-x-x--|
Ab|-5---5---5--5/7--7-7-7--5---5---5--5/7--7-7-7--|
Eb|-----------------------------------------------|

eb|-----------------------------------------------|
Bb|-----------------------------------------------|
Gb|-----------------------------------------------|
Db|-3--------3-----3-------5---5---5--5-5--5-5-5--|
Ab|-3--3-3---3-----3-------5---5---5--5-5--5-5-5--|
Eb|-1--1-1---1-----1-------3---3---3--3-3--3-3-3--|
  |    pm.
  |
eb|-----------------------------------------------|
Bb|-----------------------------------------------|
Gb|-5---5---5--5-5--5-5-5--7---7---7--7/9--9-9-9--|
Db|-x---x---x--x-x--x-x-x--x---x---x--x-x--x-x-x--|
Ab|-3---3---3--3-3--3-3-3--5---5---5--5/7--7-7-7--|
Eb|-----------------------------------------------|


Then repeat PRE-CHORUS x2

Then VERSE

Then play PRE-CHORUS, end on the G
Tap to rate this tab
# A B C D E F G H I J K L M N O P Q R S T U V W X Y Z