Song name
# A B C D E F G H I J K L M N O P Q R S T U V W X Y Z

Dazzle Vision - Second tab

Dazzle Vision - Second

drop C# tuning



theme riff

-----------------------------------|
-----------------------------------|
-----------------------------------|
-----------------------------------|
-----------------------------------|
-0-3-5-0-3-5-0-5-6-0-10-12-0-8-0-7-|

-----------------------------------|
-----------------------------------|
-----------------------------------|
-----------------------------------|
-----------------------------------|
-0-3-5-0-3-5-0-5-6-000-000-000-0---|

                   P.M.

-----------------------------------|
-----------------------------------|
-----------------------------------|
-----------------------------------|
-----------------------------------|
-0-3-5-0-3-5-0-5-6-0-10-12-0-8-0-7-|

-------------------------------------|
-------------------------------------|
--------------------------------10~--|
--------------------------10h12------|
--------------------10h12------------|
-0-3-5-0-3-5-0-5s12------------------|  (x2)


verse

 lead guitar
---------------------------------------------------------|
------13------------13----------13-----------------------|
-14--------14---14------14--14-------14------------------|
---12---12---12---12--12--12--12--12---15--12-14-12-11---|
---------------------------------------------------------|
---------------------------------------------------------|  x4

rhythm guitar

-----------------------------------|
-----------------------------------|
-----------------------------------|
-----------------------------------|
-000--000--000--000----888-777-----|
-000--000--000--000----888-777-----| x4

P.M






prechorus

lead guitar

--------------------------------------------------|
------13------------13----------13-----------15---|
-14--------14---14------14--14-------14-----------|
---12---12---12---12--12--12--12--12---15-14---12-|
--------------------------------------------------|
--------------------------------------------------|

----------------------------------------------------------|
------13------------13----------13-------------13---------|
-14--------14---14------14--14-------14--12------15-14-12-|
---12---12---12---12--12--12--12--12---12---15------------|
----------------------------------------------------------|
----------------------------------------------------------| (x2)

rhythm guitar

-------------------------------------------------|
-------------------------------------------------|
-------------------------------------------------|
-00-000--088-888--877-777--71010-101010--10------|
-00-000--088-888--877-777--71010-101010--10------|
-00-000--088-888--877-777--71010-101010--10------|

-------------------------------------------------|
-------------------------------------------------|
-------------------------------------------------|
-00-000--088-888--877-777--71010-101111--11------|
-00-000--088-888--877-777--71010-101212--12------|
-00-000--088-888--877-777--71010-101111--11------| (x2)



-------------------------------------------------|
-------------------------------------------------|
-------------------------------------------------|
-------------------------------------------------|
----------------------------------------3-2-1-0--|
-0-3-5-0-3-5--0-3-5-0-3-5--0-3-5-0-3-5--3-2-1-0--|

                                        P.M

chorus

lead guitar

----17---15-------15----/---17--15-----------|
--------------18--------/------------18--17--|
-14---14---14---14--(x3)/-----14--14---14----|
------------------------/--------------------|
------------------------/--------------------|
------------------------/--------------------|

----17---15-------15----/---17--15---18~-----|
--------------18--------/--------------------|
-14---14---14---14--(x3)/-----14--14---------|
------------------------/--------------------|
------------------------/--------------------|
------------------------/--------------------|



rhythm guitar

-----------------------------------------------------|
-----------------------------------------------------|
-----------------------------------------------------|
-88888888-1010101010101010-00000000-1010101010101010-|
-88888888-1010101010101010-00000000-1010101010101010-|
-88888888-1010101010101010-00000000-1010101010101010-|

-----------------------------------------------------|
-----------------------------------------------------|
-----------------------------------------------------|
-55555555-55555555-1010101010101010-1111111111111111-|
-55555555-55555555-1010101010101010-1212121212121212-|
-55555555-55555555-1010101010101010-1111111111111111-| (X2)

end on 11~
       12~
       11~

theme riff

verse

bridge


-------------------------------------------------|
-------------------------------------------------|
-------------------------------------------------|
-0-000000--8-888888--7-777777--10-101010101010---|
-0-000000--8-888888--7-777777--10-101010101010---|
-0-000000--8-888888--7-777777--10-101010101010---|

-------------------------------------------------|
-------------------------------------------------|
-------------------------------------------------|
-0-000000--8-888888--7-777777--10-101011-1111----|
-0-000000--8-888888--7-777777--10-101012-1212----|
-0-000000--8-888888--7-777777--10-101011-1111----|

-------------------------------------------------|
-------------------------------------------------|
-------------------------------------------------|
-0-000000--8-888888--7-777777--10-101010101010---|
-0-000000--8-888888--7-777777--10-101010101010---|
-0-000000--8-888888--7-777777--10-101010101010---|

solo guitar
(16ths-hear for the changes)
------------------------------------------------------------------|
------------------------------------------------------------------|
-10-10101010-9-10-12-12121212-10-12s17-171715-151514-1414-12-1212-|
------------------------------------------------------------------|
------------------------------------------------------------------|
------------------------------------------------------------------|

---------------------------------------------------------|
---------------------------------------------------------|
-10-10101010-9-10-5-5555-3-2-222222-5-555555-------------|
---------------------------------------------------------|
---------------------------------------------------------|
---------------------------------------------------------|

------------------------------------------------------------------|
------------------------------------------------------------------|
-10-10101010-9-10-12-12121212-10-12s17-171715-151514-1414-12-1212-|
------------------------------------------------------------------|
------------------------------------------------------------------|
------------------------------------------------------------------|

--------------------------------|
--------------------------------|
--------------------------------|
-0--0-78-0-3--0-5-0-3-0--0--0-0-|
-0--0-78-0-3--0-5-0-3-0--0--0-0-|
-0--0-78-0-3--0-5-0-3-0--0--0-0-|

chorus

outro(same as prechorus)

theme riff
Tap to rate this tab
# A B C D E F G H I J K L M N O P Q R S T U V W X Y Z