Song name
# A B C D E F G H I J K L M N O P Q R S T U V W X Y Z

Dbsk - Magic Castle tab

(/) Slide Up  (\) Slide Down  (h) Hammer On  (p) Pull Off  (b) Bend (r) Release (v) Vibrato

E|-----2--1--0-----------2--1-----------------------------2--1--0-----------------------2-----|
B|--3--------------0--3--------3--------3--0--1--3--1--------------3--1--3--------3--3--------|
G|--------------0--------------------0-----------------0-----------------------0--------------|
D|--------------------------------0-----------------------------------------0-----------------|
A|-----------3-----------------2--------------------3--------------------2--------------------|
E|--------------------------------------------------------------------------------------------|



E|--0-----------2--1--1/5--5/8--7--8--7--2--0--2--1--3--|
B|-----------3---------------------------------------3--|
G|--------0---------------------------------------------|
D|-----2------------------------------------------------|
A|--3------------------------------------------------2--|
E|---------------------------------------------------3--|
							http://www.guitartabcreator.com
Tap to rate this tab
# A B C D E F G H I J K L M N O P Q R S T U V W X Y Z