Song name
# A B C D E F G H I J K L M N O P Q R S T U V W X Y Z

Dbsk - Melody Harmony tab

A beautiful song by Jaejoong & Yoochun:

h= Hammer on
p= Puil off
/= slide

Yh...The chords in the chorus, those are the chords but I don't speak Japanese and so 
those might not be where they are in the song. Also I never knew there was a rap so I may 
be wrong there. Enjoy :D

Introduction:

E|---3-|---3-|---3-|----------|-------|------|-----------|
B|--3-3|--3-3|--1-1|---5h6p5--|----1--|---5--|6-5---0---3|
G|-0---|-0 --|-0---|--5-----5-|--0---0|--5-5-|5--5----5--|
D|-----|-----|-----|-5-------5|-3-----|-3----|5---5------|
A|3----|2----|0----|----------|-------|------|5----------|
D|-----|-----|-----|5---------|3------|0-----|5-----5-5-5|

Verse 1:

E|---3-|---3-|---3-|----------|-------|------|-----------|
B|--3-3|--3-3|--1-1|---5h6p5--|----1--|---5--|6-5---0---3|
G|-0---|-0 --|-0---|--5-----5-|--0---0|--5-5-|5--5----5--|
D|-----|-----|-----|-5-------5|-3-----|-3----|5---5------|
A|3----|2----|0----|----------|-------|------|5----------|
D|-----|-----|-----|5---------|3------|0-----|5-----5-5-5|

                                         ano melody and harmony and love...
E|---3-|---3-|---3-|----------|-------|------|-----------|
B|--3-3|--3-3|--1-1|---5h6p5--|----1--|---5--|6-E--------|
G|-0---|-0 --|-0---|--5-----5-|--0---0|--5-5-|5-S--------|
D|-----|-----|-----|-5-------5|-3-----|-3----|5-U--------|
A|3----|2----|0----|----------|-------|------|5-A------/3|
D|-----|-----|-----|5---------|3------|0-----|5-P--------|

Interlude:

E|---3-|---3-|---3-|----------|-------|------|--------|
B|--3-3|--3-3|--1-1|---5h6p5--|----1--|---5--|6-5---0-|
G|-0---|-0 --|-0---|--5-----5-|--0---0|--5-5-|5--5----|
D|-----|-----|-----|-5-------5|-3-----|-3----|5---5---|
A|3----|2----|0----|----------|-------|------|5-------|
D|-----|-----|-----|5---------|3------|0-----|5-----5-|

Verse 2:

E|---3-|---3-|---3-|----------|-------|------|-----------|
B|--3-3|--3-3|--1-1|---5h6p5--|----1--|---5--|6-5---0---3|
G|-0---|-0 --|-0---|--5-----5-|--0---0|--5-5-|5--5----5--|
D|-----|-----|-----|-5-------5|-3-----|-3----|5---5------|
A|3----|2----|0----|----------|-------|------|5----------|
D|-----|-----|-----|5---------|3------|0-----|5-----5-5-5|

E|---3-|---3-|---3-|----------|-------|------|-----------|
B|--3-3|--3-3|--1-1|---5h6p5--|----1--|---5--|6-5---0---3|
G|-0---|-0 --|-0---|--5-----5-|--0---0|--5-5-|5--5----5--|
D|-----|-----|-----|-5-------5|-3-----|-3----|5---5------|
A|3----|2----|0----|----------|-------|------|5----------|
D|-----|-----|-----|5---------|3------|0-----|5-----5-5-5|

Break:

E|--5-3-3-1-3p1p0--|
B|-1---5----------3|
G|2----------------|
D|-----------------|
A|-----------------|
D|-----------------|

Chorus:

C      C/B
aishi tsuzukeru yo
Am      Am/G
aruki tsuzukeru yo
Dm
afureru omoi ga
F         G
todoku to shinjite
C       C/B
umareru mae kara
Am       Am/G
bokura wa deatte
Dm
yume wo sagashite ta
F         G
sonna ni ga suru yo

Rap:

Am
You know there's like a moment that
C
Fading fight between you and I
F                   G
And I'd rather hope than make you sad and cry
Am
What I just wanna say is
C
Keep the faith, the faith never is born in us
F                 G
It can't take us, there is many different cases
Am
So turn the light out
C
Interact with a little piece of dream
F                G
Sound brighter, we all want the same sound
Am
And I can't help the tears
C
I told you I'm your freedom like a bird going through the sky
F                   G
What are we, just a big christmas tree at night?

Verse 3:

kirameku oto ni....

E|---3-|---3-|---3-|----------|-------|------|-----------|
B|--3-3|--3-3|--1-1|---5h6p5--|----1--|---5--|6-5---0---3|
G|-0---|-0 --|-0---|--5-----5-|--0---0|--5-5-|5--5----5--|
D|-----|-----|-----|-5-------5|-3-----|-3----|5---5------|
A|3----|2----|0----|----------|-------|------|5----------|
D|-----|-----|-----|5---------|3------|0-----|5-----5-5-5|

E|---3-|---3-|---3-|----------|-------|------|-----------|
B|--3-3|--3-3|--1-1|---5h6p5--|----1--|---5--|6-5---0---3|
G|-0---|-0 --|-0---|--5-----5-|--0---0|--5-5-|5--5----5--|
D|-----|-----|-----|-5-------5|-3-----|-3----|5---5------|
A|3----|2----|0----|----------|-------|------|5----------|
D|-----|-----|-----|5---------|3------|0-----|5-----5-5-5|

Chorus:

C       C/B
kimi ni arigatou
Am      Am/G
zutto arigatou
Dm
kagayaku omoi wo
F       G
kimi no okuri mono
C      C/B
kase aeru koto
Am     Am/G
mitsume aeru koto
Dm
hitori janai koto
F       G
oshiete kureta yo
C      C/B
kasane au ai wo
Am     Am/G
melody ni nosete
Dm
tsutaete yukitai
F        G       Am
itsumo itsumade mo

Bridge:

   C
My music is my life
F
For you, for you, smile
G                   Am
Tsuyoi kizu na garu kara
C
My life is wonderful
    F
Forever, forever
G
Kono basho kara

E|---3-|---3-|---3-|----------|
B|--3-3|--3-3|--1-1|---5h6p5--|
G|-0---|-0 --|-0---|--5-----5-|
D|-----|-----|-----|-5-------5|
A|3----|2----|0----|----------|
D|-----|-----|-----|5---------|

E|--5-3-3-1-3p1p0--|
B|-1---5----------3|
G|2----------------|
D|-----------------|
A|-----------------|
D|-----------------|

Verse 4:

E|---3-|---3-|---3-|----------|-------|------|-----------|
B|--3-3|--3-3|--1-1|---5h6p5--|----1--|---5--|6-5---0---3|
G|-0---|-0 --|-0---|--5-----5-|--0---0|--5-5-|5--5----5--|
D|-----|-----|-----|-5-------5|-3-----|-3----|5---5------|
A|3----|2----|0----|----------|-------|------|5----------|
D|-----|-----|-----|5---------|3------|0-----|5-----5-5-5|

E|---3-|---3-|---3-|----------|-------|------|-----------|
B|--3-3|--3-3|--1-1|---5h6p5--|----1--|---5--|6-5---0---3|
G|-0---|-0 --|-0---|--5-----5-|--0---0|--5-5-|5--5----5--|
D|-----|-----|-----|-5-------5|-3-----|-3----|5---5------|
A|3----|2----|0----|----------|-------|------|5----------|
D|-----|-----|-----|5---------|3------|0-----|5-----5-5-5|

Chorus:

C      C/B
Kasane au ai wo
Am     Am/G
Melody ni nosete
Dm
Tsutaete yukitai
F        G
Itsumo itsumade mo
C   C/B  Am   Am/G  Dm
Lalala...
F       G
Kimi no okuri mono
C   C/B  Am   Am/G  Dm
Lalala...
F        G
Itsumo itsumade mo

Outro:

E|---3-|---3-|---3-|----------|-------|------|-----------|
B|--3-3|--3-3|--1-1|---5h6p5--|----1--|---5--|6-5---0---3|
G|-0---|-0 --|-0---|--5-----5-|--0---0|--5-5-|5--5----5--|
D|-----|-----|-----|-5-------5|-3-----|-3----|5---5------|
A|3----|2----|0----|----------|-------|------|5----------|
D|-----|-----|-----|5---------|3------|0-----|5-----5-5-5|

E|---3-|---3-|---3-|----------|-------|------|-----------|-0-|
B|--3-3|--3-3|--1-1|---5h6p5--|----1--|---5--|6-5---0---3|-1-|
G|-0---|-0 --|-0---|--5-----5-|--0---0|--5-5-|5--5----5--|-0-|
D|-----|-----|-----|-5-------5|-3-----|-3----|5---5------|-2-|
A|3----|2----|0----|----------|-------|------|5----------|-3-|
D|-----|-----|-----|5---------|3------|0-----|5-----5-5-5|---|

Have fun :))
Tap to rate this tab
 
# A B C D E F G H I J K L M N O P Q R S T U V W X Y Z