Song name
# A B C D E F G H I J K L M N O P Q R S T U V W X Y Z

Dbv - Motions For The Swings tab

CHORUS

E | -------------------------------------------------------------------------|
B | -------------------------------------------------------------------------|
G | -------------------------------------------------------------------------|
D | -------------------------------------------------------------------------|
A | ----3-3-3-----7-7-7------2-2-2-----5-5-5-5-------------------------------|
E  | ----1-1-1-----5-5-5------4-4-4-----3-3-3-3------------------------------|

VERSE (palm mute)

E | ----------------------------------------------------------------------|
B | ----------------------------------------------------------------------|
G | ----------------------------------------------------------------------|
D | ----------------------------------------------------------------------|
A | ----3-3-3-----7-7-7------2-2-2------5-5-5-5---------------------------|
E  | ----1-1-1-----5-5-5------4-4-4------3-3-3-3--------------------------|

SOLO (2ND GUITAR)

E | -----1-1-1-----5-5-5-----4-4-4-------3-3-3-3-------------------|
B | ---------------------------------------------------------------|
G | ---------------------------------------------------------------|
D | ---------------------------------------------------------------|
A | ---------------------------------------------------------------|
E  | --------------------------------------------------------------|
Tap to rate this tab
 
# A B C D E F G H I J K L M N O P Q R S T U V W X Y Z