Song name
# A B C D E F G H I J K L M N O P Q R S T U V W X Y Z

Dbv - Self Spoken tab

CHORUS

E | ---------------------------------------------|
B | ---------------------------------------------|
G | ---------------------------------------------|
D | ---------------------------------------------|
A | -------4-4------5-5-5---9-9----7-7-7---------|
E |--------2-2------3-3-3---7-7----5-5-5---------|

VERSE

E | ---------------------------------------------|
B | ---------------------------------------------|
G | -------2-2-2-----3-3-3-----0-0-0-----1-1-1---|
D | -------2-2-2-----3-3-3-----0-0-0-----1-1-1---|
A | -------2-2-2-----3-3-3-----0-0-0-----1-1-1---|

SOLO

E | --------2-2-----3-3-3-----7-7-------5-5-5----|
B | ---------------------------------------------|
G | ---------------------------------------------|
D | ---------------------------------------------|
A | ---------------------------------------------|
Tap to rate this tab
# A B C D E F G H I J K L M N O P Q R S T U V W X Y Z