Guitaretab - guitar tabs
Song name
# A B C D E F G H I J K L M N O P Q R S T U V W X Y Z

Dc Talk - Supernatural tab

DC Talk - Supernatural

Gm on the 3rd Fret
Dm on the 10th Fret
Am on the 5th Fret
Bbm on the 6th Fret
Fm on the 1st Fret

For the Bass intro there are two options

Bass Intro Version 1 (0:00)
----------------------------------------------------------|
----------------------------------------------------------|
----------------------------------------------------------|
0-0-0-5-5-5-6-6-6-5-5-5-0-0-0-5-5-5-6-6-6-5-5-5-----------|
-----------------------------------------------   Repeat--| 5x
----------------------------------------------------------|

Bass Intro Version 2 (0:00)
Drop tuning DADGBE
----------------------------------------------------------|
----------------------------------------------------------|
----------------------------------------------------------|
----------------------------------------------------------|
-----------------------------------------------   Repeat--| 5x
0-0-0-7-7-7-8-8-8-7-7-7-0-0-0-7-7-7-8-8-8-7-7-7-----------|

Pre-Chorus (0:35)
                           Gm Gm Dm Dm Am Am
But i can feel you comin'
                           Gm Gm Dm Dm Am Am
You're not so far away
                           Gm    Dm    Am
Cause i can feel your power Surging through the whole of me
[ Tab from: http://www.guitaretab.com/d/dc-talk/120658.html ]
Chorus (0:48)
Bbm      Dm      Am       Fm
God is there and he is watching
Bbm         Fm      Cm
He tells me all is well
Bbm      Dm      Am       Fm
God is there, there's no denying
     Bbm  Fm   Cm
He's Supernatural
Bbm  Fm   Cm
Supernatural

For Verse 2 See Bass Intro (1:08)

Pre-Chorus (1:35)

Chorus (2x) (1:49)

Bridge (2:27)
------------------------|-|
---------------------.--|-|
------------------------|-|
---------------------.--|-|
---5---5--0----0--------|-|
-0---0------5-----0-----|-|

Pre-Chorus (2:55)


SOLO (Chords same as in Chorus) (3:10)
-----------------10v------------------10v-------------------------------|
--10h-11--10v----------10h-11--10v----------10h-11--10v-----13v---------|
--------------12-------------------12-------------------12--------------|
------------------------------------------------------------------------|
------------------------------------------------------------------------|
------------------------------------------------------------------------|


------15----15-------------------10v---17h-18--17------17h-18--17-------|
--/13----13----13---------------------------------15--------------13----|
-------------------10h-11--10-------------------------------------------|
------------------------------12----------------------------------------|
------------------------------------------------------------------------|
------------------------------------------------------------------------|

----------|-|
----------|-|
----------|-|
----------|-|
--/7v--7--|-|
----------|-|

Chorus (3:23)

This was my first Tab, hope you enjoyed it as much as i did. For any comments e-mail me 
timo_dinkelman@msn.com

Please Rate
Related for Supernatural tab
Advertisement will be closed in 10 seconds