Song name
# A B C D E F G H I J K L M N O P Q R S T U V W X Y Z

Dc Talk - Minds Eye tab

Help us improve GuitareTab! Take a short survey!
ARTIST - DC TALK
TITLE - MIND'S EYE
ALBUM - JESUS FREAK

THIS SONG IS IN DROP-D (THE LOW E STRING
IS TUNED TO A D)
HINT: AN EASY WAY TO TUNE TO DROP D IS TO PLAY THE E STRING
WHILE TOUCHING IT RIGHT ON THE 12 FRET AND MATCH IT WITH THE
OPEN D STRING

INTRO
E-------------------------------------------------|
B-------------------------------------------------|
G--------------5~~------2-------------------------|
D----------5-7------3-5---5~---3-2p0-2-0----------| x2
A--5~~-5-8-------------------------------3-5------|
D-------------------------------------------------|


DURING THE VERSES ONLY THE BASS PLAYS EXCEPT FOR A SMALL PART WHICH GOES LIKE:

E--------------|
B--------------|
G--------------|
D--3-2-0-------|
A--3-2-0-------|
D--3-2-0-------|

PRE-CHORUS
(PALM MUTED)
E----------|
B----------|
G--7-7-7-7-|
D--7-7-7-7-| x12
A--5-5-5-5-|
D----------|

CHORUS
E-------------------- ------------|
B-------------------- ------------|
G----------------3/5- ----3/5-----|
D----3---5---0---3/5- x2 -0--3/5--|
A----3---5---0---1/3- -0--1/3-----|
D----3---5---0------- -0----------|

INTRO 2
(AFTER 2ND CHORUS)
E--------------------------------------------------|
B--------------------------------------13^-13^-13^-|
G--------------5~~------10-12-14-12~~--12^-12^-12^-|
D----------5-7-----(12)----------------------------|
A--5~~-5-8-----------------------------------------|
D--------------------------------------------------|

E------------------|
B-13^-13-14-15\0---|
G-12^-12-13-14\0---|
D------------------|
A------------------|
S------------------|

OUTRO
(IT GOES SOMETHING LIKE THIS)
E---------------------------------|
B---------------------------------|
G---------------------------------|
D---------------------------------| (UNTIL END)
A---------------------1-3---------|
D-3-5-7-5~~-5p3p0-2-3-------------|
Related for Minds Eye tab