Song name
# A B C D E F G H I J K L M N O P Q R S T U V W X Y Z

Dc Talk - Jesus Freak tab

            INTRO
e|--------------------------------------------------|
b|--------------------------------------------------|                     
g|--------------------------------------------------|
d|--3-3-3-3--6-6-6-6--8-8-8-6--10-10-10-10----------|
a|--3-3-3-3--6-6-6-6--8-8-8-8--10-10-10-10----------|
E|--1-1-1-1--4-4-4-4--6-6-6-6--8--8--8--8-----------|

verse

e|--------------------------------------------------|
b|--------------------------------------------------|                     
g|--------------------6-6-6-6--3-3------------------|
d|--3-3-3-3--6-6-6-6--6-6-6-6--3-3---3--------------|
a|--3-3-3-3--6-6-6-6--4-4-4-4--1-1---3--------------|
E|--1-1-1-1--4-4-4-4-----------------1--------------|

Rap

e|--------------------------------------------------|
b|--------------------------------------------------|                     
g|-----------8-8-8-8-----------5-5-5-5--------------|
d|--3-3-3-3--8-8-8-8--6-6-6-6--5-5-5-5--------------|
a|--3-3-3-3--6-6-6-6--6-6-6-6--3-3-3-3--------------|
E|--1-1-1-1-----------4-4-4-4-----------------------|

Chorus

e|--------------------------------------------------|
b|--------------------------------------------------|                     
g|--------------------8-8-8-8-----------------------|
d|--3-3-3-3--6-6-6-6--8-8-8-8--8-8--10--------------|
a|--3-3-3-3--6-6-6-6--6-6-6-6--8-8--10--------------|
E|--1-1-1-1--4-4-4-4-----------6-6--8---------------|

Repeat

Verse

e|--------------------------------------------------|
b|--------------------------------------------------|                     
g|--------------------6-6-6-6--3-3------------------|
d|--3-3-3-3--6-6-6-6--6-6-6-6--3-3---3--------------|
a|--3-3-3-3--6-6-6-6--4-4-4-4--1-1---3--------------|
E|--1-1-1-1--4-4-4-4-----------------1--------------|

Rap

e|--------------------------------------------------|
b|--------------------------------------------------|                     
g|-----------8-8-8-8-----------5-5-5-5--------------|
d|--3-3-3-3--8-8-8-8--6-6-6-6--5-5-5-5--------------|
a|--3-3-3-3--6-6-6-6--6-6-6-6--3-3-3-3--------------|
E|--1-1-1-1-----------4-4-4-4-----------------------|

Chorus

e|--------------------------------------------------|
b|--------------------------------------------------|                     
g|--------------------8-8-8-8-----------------------|
d|--3-3-3-3--6-6-6-6--8-8-8-8--8-8--10--------------|
a|--3-3-3-3--6-6-6-6--6-6-6-6--8-8--10--------------|
E|--1-1-1-1--4-4-4-4-----------6-6--8---------------|

Solo

e|-----------------------------------------15-------|
b|--------------------------------------------14~---|                     
g|--------------------------------13-13-13----------|
d|-11-11-11-11--------------------------------------|
a|--------------10h11-11-11-11-11-------------------| X4
E|--------------------------------------------------|


Repeat chorus end with chorus

coments latribudejonathan@yahoo.com

Tap to rate this tab
# A B C D E F G H I J K L M N O P Q R S T U V W X Y Z