Song name
# A B C D E F G H I J K L M N O P Q R S T U V W X Y Z

Dc Talk - Jesus Freak tab

Jesus Freak by DC Talk

Standard tuning EADGBE

Intro

|-----------------------------------------------|
|-----------------------------------------------|
|-----------------------------------------------|
|-x-x-x-x-xx-2--2-2-5-5-5-2-7-7-7-5-10-10-10-10-|
|-x-x-x-x-xx-2--2-2-5-5-5-2-7-7-7-5-10-10-10-10-|
|-x-x-x-x-xx-0--0-0-3-3-3-0-5-5-5-3-8--8--8--8--|

|--------------------------------------|
|--------------------------------------|
|--------------------------------------|
|-2-2-2-5-5-2-7-7-7-7-5-10-10-10-10-10-|
|-2-2-2-5-5-2-7-7-7-7-5-10-10-10-10-10-|
|-0-0-0-3-3-0-5-5-5-5-3-8--8--8--8--8--|

Pre-verse

|---------------------------------|
|---------------------------------|
|---------------8-8-7-7-5-5-5-5-5-|
|-3-3-3/6-6-6-6-x-x-x-x-x-x-x-x-x-| x4
|-3-3-3/6-6-6-6-6-6-5-5-3-3-3-3-3-|
|-1-1-1/4-4-4-4-------------------|

Verse

|----------------------------|
|----------------------------|
|-----0-1----------0-1--0----|
|--------------------------3-| x2
|---3------------3-----------|
|-1------------1-------------|

Pre-chorus

|-x-x----x-x---|
|-x-x----x-x---|
|-x-x-5--x-x-5-|
|-x-x-5--x-x-5-|
|-x-x-3--x-x-3-|
|-x-x----x-x---|

|---------------------------------|
|---------------------------------|
|--3-6-6-5-5------3-6-6-5-5--5-5~-|
|--3-6-6-5-5-6-5--3-6-6-5-5--5-5~-| x2
|--1-4-4-3-3-6-5--1-4-4-3-3--3-3~-|
|------------4-3------------------|

Chorus

|---------------------------------|
|---------------------------------|
|---------------6-6-6-3-3-5-5-5-5-|
|-3-3-3-6-6-6-6-6-6-6-3-3-5-5-5-5-| x4
|-3-3-3-6-6-6-6-4-4-4-1-1-3-3-3-3-|
|-1-1-1-4-4-4-4-------------------|

|----|
|----|
|----|
|-3~-|
|-3~-|
|-1~-|

Verse

|----------------------------|
|----------------------------|
|-----0-1----------0-1--0----|
|--------------------------3-| x2
|---3------------3-----------|
|-1------------1-------------|

Pre-chorus

|---------|
|---------|
|---------|
|-6p5-6p5-|
|---------|
|---------|

|---------------------------------|
|---------------------------------|
|--3-6-6-5-5------3-6-6-5-5--5-5~-|
|--3-6-6-5-5-6-5--3-6-6-5-5--5-5~-| x2
|--1-4-4-3-3-6-5--1-4-4-3-3--3-3~-|
|------------4-3------------------|

Chorus

|---------------------------------|
|---------------------------------|
|---------------6-6-6-3-3-5-5-5-5-|
|-3-3-3-6-6-6-6-6-6-6-3-3-5-5-5-5-| x4
|-3-3-3-6-6-6-6-4-4-4-1-1-3-3-3-3-|
|-1-1-1-4-4-4-4-------------------|

|---------------------------|
|---------------------------|
|---------------6-6-6-5--3~-|
|-3-3-3-6-6-6-6-6-6-6-5--3~-|
|-3-3-3-6-6-6-6-4-4-4-3--1~-|
|-1-1-1-4-4-4-4-------------|

Bridge

|--------------|
|--------------|
|----3-1-------|
|-3------1h(3)-| x2
|--------------|
|--------------|

|--------------------------|
|--------------------------|
|-------0-1---3--3--1p0----|
|-3---3------------------3-|x4
|---3----------------------|
|--------------------------|

Pickslide on the A string if you want, then:

Solo

|---------------------------------------|
|---------------------------------------|
|-5-5-5---------------------------------|
|-5-5-5-6-6-6-6-------------11-10-10-10-|
|-3-3-3-6-6-6-6-11-10-10-10-------------| x2
|-------4-4-4-4-------------------------|

|-13b-|
|-----|
|-----|
|-----|
|-----|
|-----|

Chorus

|---------------------------------|
|---------------------------------|
|---------------6-6-6-3-3-5-5-5-5-|
|-3-3-3-6-6-6-6-6-6-6-3-3-5-5-5-5-| x4
|-3-3-3-6-6-6-6-4-4-4-1-1-3-3-3-3-|
|-1-1-1-4-4-4-4-------------------|

Fills

|-11bu(13)-13-13-13-13-|
|----------------------|
|----------------------|
|----------------------|
|----------------------|
|----------------------|

|-8\-----|
|--------|
|--------|
|---9h10-|
|--------|
|--------|

|-13--13p11--------|
|------------11-12-|
|------------------|
|------------------|
|------------------|
|------------------|

|-13bu14-13bu14-13bu14-13bu14-15bu16-15bu16-15bu16-15bu16-|
|---------------------------------------------------------|
|---------------------------------------------------------|
|---------------------------------------------------------|
|---------------------------------------------------------|
|---------------------------------------------------------|

|-16bu17-16bu17-16bu17-16bu17-18bu20-18bu20-18bu20-18bu20-|
|---------------------------------------------------------|
|---------------------------------------------------------|
|---------------------------------------------------------|
|---------------------------------------------------------|
|---------------------------------------------------------|

|-13-13-13-13-13-13-13-13-15-15-15-15-15-15-15-15-|
|-------------------------------------------------|
|-------------------------------------------------|
|-------------------------------------------------|
|-------------------------------------------------|
|-------------------------------------------------|

|-16-16-16-16-16-16-16-16-18-18-18-18-18-18-18-18-18~-|
|-----------------------------------------------------|
|-----------------------------------------------------|
|-----------------------------------------------------|
|-----------------------------------------------------|
|-----------------------------------------------------|

first ever tab ^^
pls rate and leave a comment
Tap to rate this tab
 
# A B C D E F G H I J K L M N O P Q R S T U V W X Y Z