Song name
# A B C D E F G H I J K L M N O P Q R S T U V W X Y Z

Dc Talk - The Hardway tab

This is dc talk Hardway ( video mix )

link to the song iam tabbing
http://www.youtube.com/watch?v=ZUA-tGisDsg

The main melody is very beautiful. look at the 3, pause like for 3 seconds  after you 
play the first one then play normal.If you dont understand listen to the song to get the timing.

Main video mix melody you
E|----------------------------------------------------------------|
B|----------------------------------------------------------------|
G|----------------------------------------------------------------|
D|----------------------------------------------------------------|
A|----6--3---3-4-3------------------------------------------------|
E|-8----------------1---------------------------------------------|

Chorus
same as intro
E|----------------------------------------------------------------|
B|----------------------------------------------------------------|
G|----------------------------------------------------------------|
D|----------------------------------------------------------------|
A|----6--3---3-4-3------------------------------------------------|
E|-8----------------1---------------------------------------------|


The bridge part which starts like this
"the warning signs are like flares in the night"


E|--9--8------------------------------------------------------|
B|--9--9------------------------------------------------------|
G|------------------------------------------------------------|
D|------------------------------------------------------------|
A|------------------------------------------------------------|
E|------------------------------------------------------------|

Theres a small guitar part after that. if you know it please post in the comments.

PLAY INTRO TO FADE THE SONG

Godbless and good day/night
Tap to rate this tab
 
# A B C D E F G H I J K L M N O P Q R S T U V W X Y Z