Song name
# A B C D E F G H I J K L M N O P Q R S T U V W X Y Z

Dcinnamons - Ku Yakin Cinta tab

e[--------8-6-5---------8-6-5-------8-6-5-----5--6--8-6-5-------|
B[--6--6--------6--6--6-------6--6---------8--------------------|
G[--------------------------------------------------------------|
D[--------------------------------------------------------------|
A[--------------------------------------------------------------|
E[--------------------------------------------------------------|

e[--------8-6-5---------8-6-5-------8-6-5-----5--6--8-----------|
B[--6--6--------6--6--6-------6--6---------8--------------------|
G[--------------------------------------------------------------|
D[--------------------------------------------------------------|
A[--------------------------------------------------------------|
E[--------------------------------------------------------------|


Kuncinya gw turunin 1, biar gampangan. hehe


   F               Dm
Ku datang mencari satu alasan
                Bb
Tuk menepis semua keraguan
           Gm    C
Di dalam hatiku ini
  F                     Dm
Benarkah bahwa cinta mampu mengobati
         Bb
Segala rasa sakitku ini
              Gm                C
Ingin ku percaya, ingin ku percaya


           F                 Dm
Kau bilang cinta slalu mengerti
           Bb           C
Kau bilang cinta tak salah
           F                     Dm
Kau bilang cinta kan saling percaya
            Bb      C
Na ra ra ra ram hmmm


Interlude:

e[--------8-6-5---------8-6-5-------8-6-5-----5--6--8-6-5-------|
B[--6--6--------6--6--6-------6--6---------8--------------------|
G[--------------------------------------------------------------|
D[--------------------------------------------------------------|
A[--------------------------------------------------------------|
E[--------------------------------------------------------------|

e[--------8-6-5-----------------------------3-------------------|
B[--6--6--------6-----------------------3-6---------------------|
G[------------------------------------5-------------------------|
D[-----------------7--5---------3-5-7---------------------------|
A[-----------------------8--3-5---------------------------------|
E[--------------------------------------------------------------|


   F                  Dm
Ku kira ku tak kan mampu sadari
             Bb
Ketulusan cinta yang sempurna
            Gm             C
Di balik semua kekurangan ini
        F
Namun denganmu
           Dm
Ku tahu cinta kan mengobati
          Bb
Segala hampa hatiku ini
             Gm               C
Kini ku percaya, kini ku percaya


         F                  Dm
Ku yakin cinta selalu mengerti
         Bb           C
Ku yakin cinta tak salah
         F                 Dm
Ku yakin cinta saling percaya
            Bb      C
Na ra ra ra ram hmmm


         F                  Dm
Yakinlah cinta selalu mengerti
         Bb           C
Yakinlah cinta tak salah
         F                     Dm
Yakinlah cinta kan saling percaya
            Bb       C
Na ra ra ra ram hmmm


e[--------8-6-5---------8-6-5-------8-6-5-----5--6--8-6-5-------|
B[--6--6--------6--6--6-------6--6---------8--------------------|
G[--------------------------------------------------------------|
D[--------------------------------------------------------------|
A[--------------------------------------------------------------|
E[--------------------------------------------------------------|

e[--------8-6-5---------8-6-5-------8-6-5-----5--6--8----13-----|
B[--6--6--------6--6--6-------6--6---------8-------------13-----|
G[--------------------------------------------------------------|
D[--------------------------------------------------------------|
A[--------------------------------------------------------------|
E[--------------------------------------------------------------|
Tap to rate this tab
# A B C D E F G H I J K L M N O P Q R S T U V W X Y Z