Song name
# A B C D E F G H I J K L M N O P Q R S T U V W X Y Z

Dcinnamons - Ku Yakin Cinta tab

d’Cinnamons – Ku yakin cinta


after reff: 
E|------9-7-6------9-7-6------9-7-6--------9-7--------9-7-6---------------9-|
B|-7-7-7------7-7-7------7-7-7------9-11-12---7--7-7-7-----9-------------9--|
G|----------------------------------------------------------9-----------9---|
D|-----------------------------------------------------------9-------9-9----|
A|------------------------------------------------------------9---9-9-------|
E|-------------------------------------------------------------9-9----------|


after reff: 
E|------9-7-6------9-7-6------9-7-6--------9-7--------9-7-6---------------9-|
B|-7-7-7------7-7-7------7-7-7------9-11-12---7--7-7-7-----9-------------9--|
G|----------------------------------------------------------9-----------9---|
D|-----------------------------------------------------------9-------9-9----|
A|------------------------------------------------------------9---9-9-------|
E|-------------------------------------------------------------9-9----------|
 
By: Nisrina aulinodh
 nisrinaaulianoordhini@yahoo.co.id
Tap to rate this tab
# A B C D E F G H I J K L M N O P Q R S T U V W X Y Z