Song name
# A B C D E F G H I J K L M N O P Q R S T U V W X Y Z

Dde - Vinsjan P Kaia tab

DDE - Vinsjan På Kaja-SOLO (live)

1--------------------------------------------------------|
2--------------------------------------------------------|
3-8-8-8------------8-8-----------------8----8----8-------|
4-------10-8----10-----10-11-10-----10---10---10---10----|
5------------11-----------------11--------------------11-|
6--------------------------------------------------------|

1----------------------------------------------------------|
2----------------14-13-------11----11----11----------------|
3-13-12-13-10-10-------13-12----12----12----12-------11-10-|
4----------------------------------------------13-12-------|
5----------------------------------------------------------|
6----------------------------------------------------------|

1------------------------------------------------------------------------------|
2----------------------------11---------------------------------14-13-14-13----|
3-------------------13-12-13-------------13----13----13---13-13-------------15-|
4----10-13-10-10-13-------------13-13~15----15----15----15--15-----------------|
5-11---------------------------------------------------------------------------|
6------------------------------------------------------------------------------|
Tap to rate this tab
 
# A B C D E F G H I J K L M N O P Q R S T U V W X Y Z