Song name
# A B C D E F G H I J K L M N O P Q R S T U V W X Y Z

Ddt - V Poslednyuyu Osen tab

Intro
E|----0--2--3--0--------0-----|--------3--------0--2-----------|
B|----------------1--3-----1--|-----0-----0--4--------0--------|
G|----------------------------|--2-----------------------------|
D|----------------------------|--------------------------------|
A|----------------------------|--------------------------------|
E|----------------------------|--------------------------------|

E|--0--2--3--0--2--3--5-------|--7--8--10-----11--12--14-------|
B|-----------------------3----|------------8--------------12---|
G|----------------------------|--------------------------------|
D|----------------------------|--------------------------------|
A|----------------------------|--------------------------------|
E|----------------------------|--------------------------------|

E|---------------------0------|--------3--------0--2-----------|
B|---------8--------------1---|-----0-----0--4--------0--------|
G|--9--11-----9--5--7---------|--2-----------------------------|
D|----------------------------|--------------------------------|
A|----------------------------|--------------------------------|
E|----------------------------|--------------------------------|

E|--0--2--3--0--2--3--5-------|--7--8--10-----11--12--14-------|
B|-----------------------3----|------------8--------------12---|
G|----------------------------|--------------------------------|
D|----------------------------|--------------------------------|
A|----------------------------|--------------------------------|
E|----------------------------|--------------------------------|

D|-2-0----------------0-2-0---------0-2-0-0-0-2-0--------------|
A|2---3-2-2-2-3-2-0--------3-2-2-2-3-------2-----3-2-2-2-3-2-0-|
E|-----------------3-3-----------------------------------------|

D|-------------------------------|
A|------2-0-----------0---0-2-2--|
E|--3-3-----3-1-3-3-3---3--------|

Chorus:

D|------------------------------------------|
A|-2-3-2-0-2-2-0---0-2-2-0-------2-0--------|
E|---------------3---------3-2-3-----3-2-3--|
Tap to rate this tab
 
# A B C D E F G H I J K L M N O P Q R S T U V W X Y Z