Guitaretab - guitar tabs
Song name
# A B C D E F G H I J K L M N O P Q R S T U V W X Y Z

De Capulet - Love At A High Speed tab

Cappo on second fret, everything relative to the cappo

6 bars clapped intro, thenÖ

Guitar 1

|-----7-----4--------5-------4-----------------------------|  X6
|--5-----5-----5--------5-------5-----5--------------------|
|-----------------4--------4-------4-----------------------|
|----------------------------------------------------------|
|----------------------------------------------------------|
|----------------------------------------------------------|

Guitar 2 (third and fifth time guitar 1 plays)

|----------------------------------------------------------|
|----------------------------------------------------------|
|--1-------------------------------------------------------|
|--2-------------------------------------------------------|
|--0h2h5-0h2h5-0h2h5-0h2h5-0h2h5-0h2h5-0h2h5-0h2h5-0h2h5---|
|--0-------------------------------------------------------|

Guitar 2 (fourth and sixth time guitar 1 plays)

|----------------------------------------------------------|
|--0h2h5-0h2h5-0h2h5-0h2h5-0h2h5-0h2h5-0h2h5-0h2h5-0h2h5---|
|--2-------------------------------------------------------|
|--2-------------------------------------------------------|
|--0-------------------------------------------------------|
|----------------------------------------------------------|

                                  [E]
Well I've been thinkiní Ďbout the phone lines and the street signs
           [A]
And they remind me every couple of miles
              [C#]                     [B]               [A]
That youíre a hundred twisted miles of highway away from here.

      [E]
And I hate feeling farther from you
      [A]
And I know that your heart feels that way too.
    [C#]                            [B]
I'm thinking I could take the train home,
               [A]
'cause there's traffic on the 202.

         [A]
And I've got a little cash.
  [B]                               [C#]
I think that I could probably get back,
                              [E]                             [A]
But I donít know if I'm quite ready to be back where you're at
                         [B]          [E]        [B]
Because the last time we talked... we crashed
[ Tab from: http://www.guitaretab.com/d/de-capulet/88014.html ]
[E]                      [B]
So here's to you, here's to you
                                               [C#]
And all the things you never thought we could be.
                                        [A]
Here's to the monologues I sold to your ears
                                     [E]
For the price of gettin' into your jeans.
                                          [B]
You've worn out my body but my body canít sleep
                                       [C#]
And the weight that I'm losing isnít a flattering thing
           [A]
But you're constantly craving your nicotine
              [C#]      [B]       [A]
íCause youíre all about love at a high speed.
       [C#]      [B]       [A]
Youíre all about love at a high speed

And thatís not me

[E] [A] [E] [A]

                                  [E]
Well I've been thinking about your sweet smile On the I-5
           [A]
And it reminds me every couple of miles
              [C#]                     [B]               [A]
That youíre a hundred twisted miles of highway away from here.

           [E]
You say "I hate feeling farther from you."
         [A]
Well the phone lines work both ways and the freeways, they do too.
        [C#]                            [B]
And I'm thinking I could take the train home,
               [A]
'cause there's traffic on the 202.

         [A]
And I've got a little cash.
  [B]                               [C#]
I think that I could probably get back,
                              [E]                             [A]
But I donít know if I'm quite ready to be back where you're at
                         [B]          [E]        [B]
Because the last time we talked... we crashed

[E]                      [B]
So here's to you, here's to you
                                              [C#]
And all the things you never thought we could be.
                                        [A]
Here's to the monologues I sold to your ears
                                     [E]
For the price of gettin' into your jeans.
                                          [B]
You've worn out my body but my body canít sleep
                                       [C#]
And the weight that I'm losing isnít a flattering thing
           [A]
But you're constantly craving your nicotine
              [C#]      [B]       [A]
íCause youíre all about love at a high speed.
       [C#]      [B]       [A]
Youíre all about love at a high speed

And thatís not me

[E] [E] [A] [E] [B] [A] [E]


So here's to you, here's to you

And all the things you never thought we could be.

Here's to the monologues I sold to your ears

For the price of gettin' into your jeans.

You've worn out my body but my body canít sleep
                                      [C#]
And the weight that I'm losing isnít a flattering thing
           [A]
But you're constantly craving your nicotine
              [C#]      [B]       [A]
íCause youíre all about love at a high speed.
       [C#]      [B]       [A]
Youíre all about love at a high speed
       [C#]      [B]       [A]
Youíre all about love at a high speed
       [C#]      [B]       [A]          [E] Ė play under outro riff
Youíre all about loooooooooooooooooooooooooove

[F#] [Ab] [A]


Outro Riff
        X3                      then
|------------------------------|----------------------------|
|------------------------------|----------------------------|
|------------------------------|----------------------------|
|------------------------------|----------------------------|
|-7--7-7-7--6--6-6-6--4--6--2--|----------------------------|
|------------------------------|-2-2-2-2--4--5--------------|
Related for Love At A High Speed tab