Song name
# A B C D E F G H I J K L M N O P Q R S T U V W X Y Z

De Dijk - Groot Hart tab

Used chords:

Am x02210
Dm xx0231
Em 022000
F  133211
G  355433
C  x32010

********************************************************************

riff1:

Am                 Dm        Em                 F         G
E|-0--0-----0-------|-1-------|-0--0-----0-------|-1--1----|-3--1-------|
B|-1-----3-----1----|-3--3--1-|-0-----3-----0----|-1-----1-|-3-----1----|
G|-2--------------2-|-2-------|-0--------------0-|-2-------|-2--------0-|
D|-2----------------|-0-------|-2----------------|-3-------|-3----------|
A|------------------|---------|-2----------------|-3-------|-3----------|
E|------------------|---------|------------------|---------|------------|


riff2:

Am                 Dm        Em         F      G
E|-0--0-----0-------|-1-------|------|---|------|-3-------------------|---|
B|-1-----3-----1----|-3--3--1-|----0-|-0-|-1----|-3-------------------|-0-|
G|-2--------------2-|-2-------|-0--0-|-0-|-2--2-|-2--2--2--2--2--2--2-|-0-|
D|-2----------------|-0-------|-2--2-|-0-|-3--3-|-3--3--3--3--3--3--3-|-0-|
A|------------------|---------|-2--2-|-0-|-3--3-|-3--3--3--3--3--3--3-|-0-|
E|------------------|---------|------|---|------|---------------------|-0-|

Verse: riff1 (3*), riff2 (1*)
Chorus: C-G-F

Full lyrics:

Dokter, kunt u even komen en breng uw beste medicijn
Ik heb er nu al jaren last van, ook al doet het niet echt pijn
Maar ik hou van alle vrouwen, alle vrouwen op dit bal
Da's veel te veel om van te houden, dokter dit is een spoedgeval!

Chorus:
Ik heb een groot hart, dit hart zo groot
Het wordt nog mijn dood, dit hart zo groot
Ik heb een groot hart

Een ochtend als vanochtend, vroeg op de zon die scheen.
Opgewekt loop ik naar buiten, ik zie een meisje en ik denk alleen.
Ik dacht dat ze naar me lachte, dus vrolijk lach ik naar haar terug.
Maar die boom was haar vriend, dokter komt u vlug.

Chorus

Dokter, straks is het weer lente, als u begrijpt wat ik bedoel.
Al dat moois langs al die wegen, dan krijg ik dat gevoel.
Driemaal daags onder een auto, ik stoot dagelijks 5 keer mijn kop.
Da's veel te veel om van te houden, dokter weet u daar niks op?

Chorus
Tap to rate this tab
 
# A B C D E F G H I J K L M N O P Q R S T U V W X Y Z