Song name
# A B C D E F G H I J K L M N O P Q R S T U V W X Y Z

De Heideroosjes - Homesick For A Place That Does Not Exist tab

Artist:		de Heideroosjes
Song:		Homesick for a place (that does not exist)
Album:		Chapter eight, the golden state

I noticed there wasnít a tab of this song, so I decided to tab it myself. Itís the 
first tab I do so there is a chance itís not a 100% correct. The tab is kind off 
messy, but probably alright to figure out. Listen to the song, its punk so itís 
pretty straight forward. If you see any faults in the tab please comment. 
Enjoy.

Intro

E--------------------------|
B--------------------------|
G--------------------------|  Palm mute
D--------------------------|
A---4-4-4-4-4-4-4-4--------|
E--------------------------|

Verse 1

E-----------------------------------| 	\
B-----------------------------------|  	 | 
G-----------------------------------|  	 |
D------------\----------------------|  	 |  2x  Palm mute
A---4-4-4-4--|6x--------------------|  	 |
E------------/------5-5-5-5-4-4-4-4-| 	 /

e--------------------------------------|
B--------------------------------------|
G--------------------------------------|
D------6--------7--------6-------7-----|
A------6--------7--------6-------7-----|
E------4--------5--------4-------5-----|

E-------------------------------------|     	\
B-------------------------------------|     	 | 
G----6-6-\------2-6----6-6------------|   	 |
D----6-6--|5x---2-6----6-6------------|  	 |
A----4-4-/------0-4----4-4------------|      	 |
E-------------------------------------|     	 |
                                                 |2x
E-------------------------------------|       	 |
B-------------------------------------|		 |
G----6-6-\------7-6----6-6------------|		 |
D----6-6--|5x---7-6----6-6------------|		 |
A----4-4-/------5-4----4-4------------|		 |
E-------------------------------------|		/

Verse 2

E-----------------------------------|	\
B------------------1010-9-9-\-------|	 |
G---6-6--\---------x-x--x-x-|1x-----|	 |3x
D---6-6--|6x- -----7-7--6-6-/-------|	 |
A---4-4--/--------------------------|	 |
E-----------------------------------|	/

e--------------------------------------|
B--------------------------------------|
G--------------------------------------|
D------6--------7--------6-------7-----|
A------6--------7--------6-------7-----|
E------4--------5--------4-------5-----|



E-------------------------|
B-------------------------|
G-------------------------|
D-----6-6-6-6-\-----6-----|
A-----6-6-6-6-|3x---6-----|
E-----4-4-4-4-/-----4-----|

Chorus


e-------------------------------------------|
B-------------------------------------------|
G----9-9-\-----6-6-\------------------------|
D----9-9--|8x--6-6-|8x--7-7-\----6-6-\------|
A----7-7-/-----4-4-/----7-7-|8x--6-6--|8x---|
E-----------------------5-5-/----4-4-/------|

e----------------------------------------------------|
B----------------------------------10101010-9-9-9-9--|
G----9-9-\-----6-6-\---------------x-x-x-x-x-x-x-x---|
D----9-9--|8x--6-6-|8x---7-7-\-----7-7-7-7-6-6-6-6---|
A----7-7-/-----4-4-/-----7-7-|8x---------------------|
E------------------------5-5-/-----------------------|

E-------------------------------------|     	\
B-------------------------------------|     	 | 
G----6-6-\------2-6----6-6------------|   	 |
D----6-6--|5x---2-6----6-6------------|  	 |
A----4-4-/------0-4----4-4------------|      	 |
E-------------------------------------|     	 |
                                                 |2x
E-------------------------------------|       	 |
B-------------------------------------|		 |
G----6-6-\------7-6----6-6------------|		 |
D----6-6--|5x---7-6----6-6------------|		 |
A----4-4-/------5-4----4-4------------|		 |
E-------------------------------------|		/

Verse 2

Chorus

Bridge

E----------------------------------|\
B------------------1010-9-9-\------| |
G---6-6--\---------x-x--x-x-|1x----| |3x
D---6-6ó-|6x- -----7-7--6-6-/------| |Listen to song for strumming patern
A---4-4--/-------------------------| |
E----------------------------------|/

e--------------------------------------|
B--------------------------------------|
G--------------------------------------|
D------6--------7--------6-------7-----|
A------6--------7--------6-------7-----|
E------4--------5--------4-------5-----|

E-------------------------|
B-------------------------|
G-------------------------|
D-----6-6-6-6-\-----6-----|
A-----6-6-6-6-|3x---6-----|
E-----4-4-4-4-/-----4-----|

Chorus

Outro

E---------------------------------|
B---------------------------------|
G----6-6-\------2-6----6-6--------|
D----6-6--|5x---2-6----6-6--------|
A----4-4-/------0-4----4-4--------|
E---------------------------------|

E---------------------------------|
B---------------------------------|
G----6-6-\------7-6----6-6--------|
D----6-6--|5x---7-6----6-6--------|
A----4-4-/------5-4----4-4--------|
E---------------------------------|
Tap to rate this tab
 
# A B C D E F G H I J K L M N O P Q R S T U V W X Y Z