Song name
# A B C D E F G H I J K L M N O P Q R S T U V W X Y Z

De Heideroosjes - Poep In Je Hoofd tab

Standard E tuning

Its a verry simple song. There are 3 chords Ore something like it.
I can figure out the solo, although its easy. And there some palm mutes here and there. 
luck and have fun
Greetz Tias


intro : 2X the sh*t
riff 1: 2X
riff 2: 2X Palm muted
riff 3: 4X
riff 4: 2X Palm muted
riff 5: 8X
riff 6: 2X Palm muted
riff 7: 4X end
1e guitar
|---------------------------------|
|---------------------------------|
|--4-4-4-4--4-4-4-4--5-5-5-5-5-5--|
|--4-4-4-4--4-4-4-4--5-5-5-5-5-5--|
|--2-2-2-2--2-2-2-2--3-3-3-3-3-3--|
|-----------2-2-2-2---------------|

2e guitar
|---------------------------------|
|---------------------------------|
|--4-4-4-4-----------5-5-5-5-5-5--|
|--4-4-4-4--4-4-4-4--5-5-5-5-5-5--|
|--2-2-2-2--4-4-4-4--3-3-3-3-3-3--|
|-----------2-2-2-2---------------|
Tap to rate this tab
# A B C D E F G H I J K L M N O P Q R S T U V W X Y Z