Song name
# A B C D E F G H I J K L M N O P Q R S T U V W X Y Z

De Mens - Ergens Onderweg chords

Highlighted       Show chord diagrams
Ergens Onderweg
De Mens

Capo V

             D         A             Em       G
e-------------------------|-------------------------|
B-------------------------|-------------------------|
G-------------------------|-------------------------|
D--2--4--2--0-0----0------|-2--4--2--0-------4--0---|
A---------------------0---|-------------2-----------|
E-------------------------|-------------------------|

Bass
e----------------------------------------------|
B----------------------------------------------|
G----------------------------------------------|
D----------------------------------------------|
A-----------5-5-5-5-5--------------------------|
E---------------------5-5-5-5-0-0-0-0-3-3-3-3--|

                 D      A
Hoe lang is het al
                Em      G
Zo lang is het al
                D       A
ben ik anders dan
              Em       A
je inwonende man

                  D       A
ken je mijn vrouw al
              Em       A
ik ken ze al lang
               D       A
denk je nu en dan
                      Em     A
aan al wat niet meer kan


CHORUS
                D       A
tot ergens onderweg
        Em         G
ergens onderweg
                    D       A
let niet op wat ik zeg
                Em      G
tot ergens onderweg

in een dom moment
van sluipend sentiment
ben je weer van mij
en ik dan weer je vent


CHORUS
tot ergens onderweg
ergens onderweg
ik heb niets gezegd
tot ergens onderweg

je bent mooier dan ooit tevoren
ik ben uitgeput en ongeschoren
je bent mooier dan ik ooit kon dromen
ik ben moe en altijd overal onderweg

in een dom moment
van sluipend sentiment
ben ik weer de vent
die al je kleren kent

tot ergens onderweg
ergens onderweg
alles is gezegd
tot ergens onderweg


En blijf zo maar doorgaan en amuseer je voor de rest van het nummer! Laat je gaan!
Veel plezier met dit geweldige nummer!
Tap to rate this tab
 
# A B C D E F G H I J K L M N O P Q R S T U V W X Y Z