Song name
# A B C D E F G H I J K L M N O P Q R S T U V W X Y Z

De Mens - Dirk Doet Raar tab

Help us improve GuitareTab! Take a short survey!
In de strofes wordt dit tokkeltje heel de tijd gespeeld (denk ik):

e------9--------4-|
B----7---7----2---|
G--8--------3-----|
D-----------------|
A-----------------|
E-----------------|


Bij "Dirk doet raar" klinkt het:
e---------------------------------------|
B---2------------------2--2-----7-6-----|
G--3-------------------3--3---------8---|
D---------------------------------------|
A---------------------------------------|
E---------------------------------------|
	Dirk doet raar
Related for Dirk Doet Raar tab