Song name
# A B C D E F G H I J K L M N O P Q R S T U V W X Y Z

De Mens - Maandag tab

Intro: (1)
e----3----3---3---3---3^6--|
B--3----3---3---3---3------|
G--------------------------|
D--------------------------|
A--------------------------|
E--------------------------|

En dan: (gelijktijdig met de intro, maar zonder de slaaid)

e-------------------|
B-------------------|
G-------------------|
D------5-5--4-4-----|
A-5-5--3-3--2-2-7-7-|
E-3-3-----------5-5-|
Bovenstaand rifke het hele lied door.

Soloke (nu wel af)
e--------------------------3h5p3-------7h8p7------|
B-0h1p0--------------------------3------------8---|
G--------2--0h2p0---0-----------------------------|
D-----------------2-------------------------------|
A-------------------------------------------------|
E-------------------------------------------------|
Tap to rate this tab
 
# A B C D E F G H I J K L M N O P Q R S T U V W X Y Z