Song name
# A B C D E F G H I J K L M N O P Q R S T U V W X Y Z

De Raggende Manne - Poep In Je Hoofd tab

INTRO
E|----------------------------------------------------------------|
B|----------------------------------------------------------------|
G|-9-9-9-9-9-9----------------------------------------------------|
D|-9-9-9-9-9-9-9-9-9-9-9-9-10-10-10-10-8-8-8-8-10-10-10-10--------|
A|-7-7-7-7-7-7-9-9-9-9-9-9-10-10-10-10-8-8-8-8-10-10-10-10--------|
E|-------------7-7-7-7-7-7-8--8--8--8--8-8-8-8-8--8--8--8---------|

2e part
E|--------------------------------------------------------------------|
B|--------------------------------------------------------------------|
G|-9-9-9-9-9-9--------------------------------------------------------|
D|-9-9-9-9-9-9-9-9-9-9-9-9-10-10-10-10-10-10-10-10-10-10-10-10--------|
A|-7-7-7-7-7-7-9-9-9-9-9-9-10-10-10-10-10-10-10-10-10-10-10-10--------|
E|-------------7-7-7-7-7-7-8--8--8--8--8--8--8--8--8--8--8--8---------|


SOLO's
E|------------------------------------|
B|----------------------------------9^|
G|(9)-9-12-1-9-7-9-(9)-11-12-11-9-7---|
D|------------------------------------|
A|------------------------------------|
E|------------------------------------|

E|11-11-14-13-11-9-11---11-14-13-11-9-14^-11-11-14-13-11-9-11-|
B|------------------------------------------------------------|
G|------------------------------------------------------------|
D|------------------------------------------------------------|
A|------------------------------------------------------------|
E|------------------------------------------------------------|

E|11-9-7-9-7-6------------------------|
B|-------------12-10-8-10-8-----------|
G|------------------------------------|
D|------------------------------------|
A|------------------------------------|
E|------------------------------------|

E|----------------------------------------|
B|----------------------------------------|
G|14-16-----------------------------------|
D|------14-16-14-17-17-17-17-17-17-17^----|
A|----------------------------------------|
E|----------------------------------------|
Tap to rate this tab
# A B C D E F G H I J K L M N O P Q R S T U V W X Y Z