Guitaretab - guitar tabs
Song name
# A B C D E F G H I J K L M N O P Q R S T U V W X Y Z

De Saloon - Esfumar tab

Intro:

G:----------------------------------|
D:-------2-0------------------------|  Se
A:--0-2-4---4-2-0-0-2-2-0--0-0-2-2--|repite
E:2---------------------------------|

G:------------------------------------|
D:--------4---------------------------|
A:--0-2-4---5-4-2-0-0-2-2-0--0-0-2-2-0|repite
E:2-----------------------------------|
[ Tab from: http://www.guitaretab.com/d/de-saloon/64439.html ]
pre coro:
G:--------------------------------------------------------------------|
D:----------------------------------------------------0-0-0-0-0-0-0-0-|
E:4-4-4-4-4-4-4-4-4-4-2-2-2-2-2-2-2-2-4-4-4-4-4-4-4-4-----------------|
A:--------------------------------------------------------------------|

Aqui se repite el intro y la segunda parte, despues
hay cambios en el precoro que van asi:
G:-------------------------------------------|
D:-------------------------------------------|
E:4-4-2-4-4-2-4--2-2-0-2-2-0-4-4-2-2-5-5-5-5-|
A:-------------------------------------------|

coro
G:--------------------------------------------------|
D:--------------------3-3-3-3-3-3-3-2-2-2-2-2-2-2-2-|
E:4-4-2-2-2-4-4-2-2-2-------------------------------|
A:--------------------------------------------------|
Related for Esfumar tab
Advertisement will be closed in 10 seconds