Song name
# A B C D E F G H I J K L M N O P Q R S T U V W X Y Z

De Saloon - Miel tab

Bueno, pues este es el tab de como esque yo toco miel.
Esta algo modificado a comparacion del normal ya que para mi suena mejor y no tengo 2da 
que me acompaņe.
Ademas se ve algo mas profesional xD
Aqui lo tienen

Intro
e|-------------7---|-------------7---|-------------7---|-------------7---|
B|-----------------|-----------------|-----------------|-----------------|
G|-----9---------9-|-----9---------9-|-----9---------9-|-----9---------9-|
D|-9-----9---9-----|-9-----9---9-----|-9-----9---9-----|-9-----9---9-----|
A|-7-7-----7-------|-6-6-----6-------|-----------------|-----------------|
E|-----------------|-----------------|-9-9-----9-------|-7-7-----7-------|

e|-------------7---|-------------7---|-------------7---|-------7~-|
B|-----------------|-----------------|-----------------|----------|
G|-----9---------9-|-----9---------9-|-----9---------9-|-----9~~~-|
D|-9-----9---9-----|-9-----9---9-----|-9-----9---9-----|---9~~~~~-|
A|-7-7-----7-------|-6-6-----6-------|-6-6-----6-------|----------|
E|-----------------|-----------------|-----------------|-9~~~~~~~-|

PreVerse
   v v ^     v v ^     v v ^   v v ^     v v ^     v v ^
e|-7-7-7-x-x-7-7-7-x-x-7-7-7-|-7-7-7-x-x-7-7-7-x-x-7-7-7-|
B|-------x-x-------x-x-------|-------x-x-------x-x-------|
G|-9-9-9-x-x-9-9-9-x-x-9-9-9-|-------x-x-------x-x-------|
D|-9-9-9-x-x-9-9-9-x-x-9-9-9-|-9-9-9-x-x-9-9-9-x-x-9-9-9-|
A|-7-7-7-x-x-7-7-7-x-x-7-7-7-|-9-9-9-x-x-9-9-9-x-x-9-9-9-|
E|-------x-x-------x-x-------|-7-7-7-x-x-7-7-7-x-x-7-7-7-|

   v v ^     v v ^     v v ^   v v ^     v v ^     v v ^
e|-7-7-7-x-x-7-7-7-x-x-7-7-7-|-7-7-7-x-x-7-7-7-x-x-7-7-7-|
B|-------x-x-------x-x-------|-------x-x-------x-x-------|
G|-6-6-6-x-x-6-6-6-x-x-6-6-6-|-------x-x-------x-x-------|
D|-6-6-6-x-x-6-6-6-x-x-6-6-6-|-6-6-6-x-x-7-7-7-x-x-7-7-7-|
A|-4-4-4-x-x-4-4-4-x-x-4-4-4-|-6-6-6-x-x-7-7-7-x-x-7-7-7-|
E|-------x-x-------x-x-------|-4-4-4-x-x-5-5-5-x-x-5-5-5-|

   v v ^     v v ^     v v ^   v v ^     v v ^     v v ^
e|-7-7-7-x-x-7-7-7-x-x-7-7-7-|-7-7-7-x-x-7-7-7-x-x-7-7-7-|
B|-------x-x-------x-x-------|-------x-x-------x-x-------|
G|-9-9-9-x-x-9-9-9-x-x-9-9-9-|-------x-x-------x-x-------|
D|-9-9-9-x-x-9-9-9-x-x-9-9-9-|-9-9-9-x-x-9-9-9-x-x-9-9-9-|
A|-7-7-7-x-x-7-7-7-x-x-7-7-7-|-9-9-9-x-x-9-9-9-x-x-9-9-9-|
E|-------x-x-------x-x-------|-7-7-7-x-x-7-7-7-x-x-7-7-7-|

   v v ^     v v ^     v v ^   v v ^ v ^ v v ^ v ^ v
e|-7-7-7-x-x-7-7-7-x-x-7-7-7-|-7-7-7-7-7-7-7-7-7-7-7~-|
B|-------x-x-------x-x-------|------------------------|
G|-6-6-6-x-x-6-6-6-x-x-6-6-6-|------------------------|
D|-6-6-6-x-x-6-6-6-x-x-6-6-6-|-6-6-6-6-6-7-7-7-7-7-7~-|
A|-4-4-4-x-x-4-4-4-x-x-4-4-4-|-6-6-6-6-6-7-7-7-7-7-7~-|
E|-------x-x-------x-x-------|-4-4-4-4-4-5-5-5-5-5-5~-|

Verse x2
e|-7---7---7---7---5---5---5---5---4---4---4---4---4-4h5-4---4h5-4---4-|
B|---5---5---5---5---5---5---5---5---5---5---5---5---------5-------5---|
G|---------------------------------------------------------------------|
D|---------------------------------------------------------------------|
A|-7-------------7-6-------------6-4-------------4-----------0---------|
E|-------------------------------------------------4-------4-----------|

Chorus x2
   v v ^ v ^ v v ^ v ^ v v ^ v v ^ v ^ v v ^ v ^ v v ^
e|-0-0-0-0-0-0-0-0-0-0-0-0-0-0-0-0-0-0-0-0-0-0-0-0-0-0-|
B|-0-0-0-0-0-0-0-0-0-0-0-0-0-0-0-0-0-0-0-0-0-0-0-0-0-0-|
G|-4-4-4-4-4-4-4-4-4-4-4-4-4-4-4-4-4-4-4-4-4-4-4-4-4-4-|
D|-2-2-2-2-2-2-2-2-2-2-2-2-2-4-4-4-4-4-4-4-4-4-4-4-4-4-|
A|-0-0-0-0-0-0-0-0-0-0-0-0-0-2-2-2-2-2-2-2-2-2-2-2-2-2-|
E|-----------------------------------------------------|

   v v ^ v ^ v v ^ v ^ v v ^ v v ^ v ^ v v ^ v ^ v v ^
e|-0-0-0-0-0-0-0-0-0-0-0-0-0-0-0-0-0-0-0-0-0-0-0-0-0-0-|
B|-0-0-0-0-0-0-0-0-0-0-0-0-0-0-0-0-0-0-0-0-0-0-0-0-0-0-|
G|-4-4-4-4-4-4-4-4-4-4-4-4-4-4-4-4-4-4-4-4-4-4-4-4-4-4-|
D|-2-2-2-2-2-2-2-2-2-2-2-2-2-4-4-4-4-4-4-4-4-4-4-4-4-4-|
A|-4-4-4-4-4-4-4-4-4-4-4-4-4-2-2-2-2-2-2-2-2-2-2-2-2-2-|
E|-----------------------------------------------------|


Repeat Verse x2

Repeat Chorus x2

Solo
e|-----------------------------------------|
B|-----------------------------------------|
G|-----------------------------------------|
D|---6h7-6---6h7-6---6---------------------|
A|-7-------7-------7-----6h7-6---6h7-6-7-6-|
E|---------------------7-------7-----------|

e|-------------------------------------|
B|-------------------------------------|
G|-------------------------------------|
D|---------9-7-----9-------------------|
A|---7h9-7-----9-7---7---7-----7---7---|
E|-9-------------------7---7-5---5---5-|

e|------------------------------------------|
B|------------------------------------------|
G|------------------------------------------|
D|--6h7-9-7p6-7-6---6-----------------------|
A|-7--------------7-----6h7-9-7p6-7p6-7-6-7-|
E|--------------------7---------------------|

                        v ^ v     v ^ v     v
e|--------------------------------------------|
B|--------------------------------------------|
G|--------------------------------------------|
D|---------9-7-----9----6-6-6-x-x-7-7-7-x-x-7-|
A|---7h9-7-----9-7---7--6-6-6-x-x-7-7-7-x-x-7-|
E|-9--------------------4-4-4-x-x-5-5-5-x-x-5-|

Outro x4
   v v ^ v ^ v v ^ v ^ v v ^ v v ^ v ^ v v ^ v ^ v v ^
e|-----------------------------------------------------|
B|-----------------------------------------------------|
G|-4-4-4-4-4-4-4-4-4-4-4-4-4-4-4-4-4-4-4-4-4-4-4-4-4-4-|
D|-4-4-4-4-4-4-4-4-4-4-4-4-4-4-4-4-4-4-4-4-4-4-4-4-4-4-|
A|-0-0-0-0-0-0-0-0-0-0-0-0-0-2-2-2-2-2-2-2-2-2-2-2-2-2-|
E|-----------------------------------------------------|

   v v ^ v ^ v v ^ v ^ v v ^ v v ^ v ^ v v ^ v ^ v v ^
e|-----------------------------------------------------|
B|-----------------------------------------------------|
G|-6-6-6-6-6-6-6-6-6-6-6-6-6-4-4-4-4-4-4-4-4-4-4-4-4-4-|
D|-6-6-6-6-6-6-6-6-6-6-6-6-6-4-4-4-4-4-4-4-4-4-4-4-4-4-|
A|-4-4-4-4-4-4-4-4-4-4-4-4-4-2-2-2-2-2-2-2-2-2-2-2-2-2-|
E|-----------------------------------------------------|
Tap to rate this tab
# A B C D E F G H I J K L M N O P Q R S T U V W X Y Z