Song name
# A B C D E F G H I J K L M N O P Q R S T U V W X Y Z

De Stijl - Queen Midas tab

De Stijl ~ Queen Midas

Tuning = EADGBe

x = mute
* = let strum


Intro:|C      |B    |A    |B     | |C      |
      |_______|_____|_____|______| |_______|
     e|-8--8--|-7-x-|-5-5-|-7-xxx| |-8--8--|
     B|-8--8--|-7-x-|-5-5-|-7-xxx| |-8--8--|
     G|-9--9--|-8-x-|-6-6-|-8-xxx| |-9--9--|
     D|-10-10-|-9-x-|-7-7-|-9-xxx| |-10-10-|
     A|-------|-----|-----|------| |-------|
     E|-------|-----|-----|------| |-------|

Verse1: Quiet


Refrain1:
 |C           |D      |E           |C           |B    |E   |C           |
 |____________|_______|____________|____________|_____|____|____________|
e|-8--8--8--8-|-10-10-|-12-12-12-x-|-8--8--8--8-|-7-7-|-12-|-8--8--8--8-|
B|-8--8--8--8-|-10-10-|-12-12-12-x-|-8--8--8--8-|-7-7-|-12-|-8--8--8--8-|
G|-9--9--9--9-|-11-11-|-13-13-13-x-|-9--9--9--9-|-8-8-|-13-|-9--9--9--9-|
D|-10-10-10-10|-10-10-|-12-12-12-x-|-10-10-10-10|-7-7-|-12-|-10-10-10-10|
A|------------|-12-12-|-14-14-14-x-|------------|-----|-14-|------------|
E|------------|-------|------------|------------|-----|----|------------|

[Intro]

Verse2: Quiet

Refrain2:
 |C           |D      |E           |C           |B    |E   |C           |
 |____________|_______|____________|____________|_____|____|____________|
e|-8--8--8--8-|-10-10-|-12-12-12-x-|-8--8--8--8-|-7-7-|-12-|-8--8--8--8-|
B|-8--8--8--8-|-10-10-|-12-12-12-x-|-8--8--8--8-|-7-7-|-12-|-8--8--8--8-|
G|-9--9--9--9-|-11-11-|-13-13-13-x-|-9--9--9--9-|-8-8-|-13-|-9--9--9--9-|
D|-10-10-10-10|-10-10-|-12-12-12-x-|-10-10-10-10|-7-7-|-12-|-10-10-10-10|
A|------------|-12-12-|-14-14-14-x-|------------|-----|-14-|------------|
E|------------|-------|------------|------------|-----|----|------------|

[Bass]


Verse3: [Intro]

Ending:
 |C    |
 |_____|
e|-8*--|
B|-8*--|
G|-9*--|
D|-10*-|
A|-----|
E|-----|


You have to figure out the timing for yourself. I think this is correct, it sounds right 
playing along with the song though. Have a great time playing this happy song!

www.destijl.nu
Tap to rate this tab
 
# A B C D E F G H I J K L M N O P Q R S T U V W X Y Z