Guitaretab - guitar tabs
Song name
# A B C D E F G H I J K L M N O P Q R S T U V W X Y Z

Dead And Divine - The Sugar Sickness tab

i tabbed this like two days after the song came out.
so cut me some slack, its about 97.6% right.

The sugar sickness
0:00-0:27
|------------------------------------------------------|
|------------------------------------------------------|
|----7------------------------------7----------77777---|
|----x---3/5------------------------x----3/5---55555---|
|-0--5---3/5-----3----3----3/5---0--5----3/5-----------| x5
|-0----0-3/5--00-3-00-3--0-3/5---0----0-3/5-0---------|
       .      ..   ..    .            .

0:28-0:48
|--------------------------------------------|
|--------------------------------------------|
|---------------------------------777--777---|
|------------------------7--------xxx--xxx---|
|--00--00--0-00-0-0--00--5-00--5--555--555---|
|--00--00--0-00-0-0--00----00--5-------------|
                     ..    ..

|--------------------------------------------|
|--------------------------------------------|
|---------------------------------777--777---|
|------------------------7--------xxx--xxx---|
|--00--00--0-00-0-0--00--5-00--5--555--555---|
|--00--00--0-00-0-0--00----00--5-------------|
                     ..    ..

|--------------------------------------|
|--------------------------------------|
|--------------------------------777---|
|------------------------7-------xxx---|
|---0-00--0-00--0-00-----5----5--555---|
|---0-00--0-00--0-00--00---00-5--------|
                       ..

|---------------------------------------------|
|---------------------------------------------|
|--------------------------------777-777------|
|------------------------7-------xxx-xxx------|
|---0-00--0-00--0-00-----5----5--555-555------|
|---0-00--0-00--0-00--00---00-5----------00---|
                       ..   ..
0:49-0:58
|-----------------------------------|
|-----------------------------------|
|-7-7-7-7-7-7-7-7--6-6-6-6-6-6-6-6--|
|-x-x-x-x-x-x-x-x--x-x-x-x-x-x-x-x--|
|-5-5-5-5-5-5-5-5--4-4-4-4-4-4-4-4--|
|-----------------------------------|

-------------------------------|
-------------------------------|
-5-5-5-5-5-5-5-5--6-6-6-6-6~---|
-x-x-x-x-x-x-x-x--x-x-x-x-x~---|
-3-3-3-3-3-3-3-3--4-4-4-4-4~---|
-------------------------------|

0:59-1:18
|-------------------------------------------|
|-------------------------------------------|
|--777---7-7-777777-------------------------|
|--xxx---x-x-xxxxxx--777---7-7-777777-------|
|--555---5-5-555555--777-0-7-7-777777-------|
|------0-------------777-0-7-7-777777-------|

----------------------------------------------------|
----------------------------------------------------|
---7---7-7----7----7777----10--7-7----10---10----10-|
---x---x-x----x----xxxx----x---x-x----x----x-----x--|
---5---5-5----5----5555----8---5-5----8----8-----8--|
-0---0-----00---00-------0---0-----00---00----00----|
           ..   ..                 ..   ..    ..

|-------------------------------------------|
|-------------------------------------------|
|--777---7-7-777777-------------------------|
|--xxx---x-x-xxxxxx--777---7-7-777777-------|
|--555---5-5-555555--777-0-7-7-777777-------|
|------0-------------777-0-7-7-777777-------|

----------------------------------------------------|
----------------------------------------------------|
---7---7-7----7----7777----10--7-7----10---10----10-|
---x---x-x----x----xxxx----x---x-x----x----x-----x--|
---5---5-5----5----5555----8---5-5----8----8-----8--|
-0---0-----00---00-------0---0-----00---00----00----|
           ..   ..                 ..   ..    ..
1:19-1:23
|------------------------------------------------|
|------------------------------------------------|
|--7-7-7--9-9-9--10-10--12-12-12-12-12-12-12-12--|
|------------------------------------------------|
|------------------------------------------------|
|------------------------------------------------|

|---------------------------|
|---------------------------|
|--10-10-10--9-9-9--7-79~--|
|---------------------------|
|---------------------------|
|---------------------------|

1:24-1:43
|------------------------------------------------------|
|------------------------------------------------------|
|----7------------------------------7----------77777---|
|----x---3/5------------------------x----3/5---55555---|
|-0--5---3/5-----3----3----3/5---0--5----3/5-----------|
|-0----0-3/5--00-3-00-3--0-3/5---0----0-3/5-0---------|
              ..   ..
|-----------------------------------------------|
|-----------------------------------------------|
|----7------------------------------7-----------|
|----x---3/5------------------------x----3/5----|
|-0--5---3/5-----3----3----3/5---0--5----3/5----|
|-0----0-3/5--00-3-00-3--0-3/5---0----0-3/5----|
              ..   ..

|------------------------------------------------------|
|------------------------------------------------------|
|----7------------------------------7----------77777---|
|----x---3/5------------------------x----3/5---55555---|
|-0--5---3/5-----3----3----3/5---0--5----3/5-----------|
|-0----0-3/5--00-3-00-3--0-3/5---0----0-3/5-0---------|

|------------------------------------------------------|
|------------------------------------------------------|
|----7------------------------------7----------77777---|
|----x---3/5------------------------x----3/5---55555---|
|-0--5---3/5-----3----3----3/5---0--5----3/5-----------|
|-0----0-3/5--00-3-00-3--0-3/5---0----0-3/5-0---------|

1:44-1:53
|-----------------------------------|
|-----------------------------------|
|-----------------------------------|
|-----------------------------------|
|-5-0-3-0--------------5-0-3-0------|
|-5-0-3-0--------------5-0-3-0------|
[ Tab from: http://www.guitaretab.com/d/dead-and-divine/188230.html ]
1:54-2:14
|--------------------------------------------|
|--------------------------------------------|
|-777-7-7---777--7-7---777--7-7---777-7-7~--|
|-xxx--x-x---xxx--x-x---xxx--x-x---xxx-x-x~--|
|-555--5-5---555--5-5--555--5-5---555-5-5~--|
|--------------------------------------------|

|--------------------------------------------|
|--------------------------------------------|
|-777-7-7---777--7-7---777--7-7---777-7-7---|
|-xxx--x-x---xxx--x-x---xxx--x-x---xxx-x-x---|
|-555--5-5---555--5-5--555--5-5---555-5-5---|
|--------------------------------------------|

2:15-2:24
|----------------------------------------------|
|------------6666666---------------6666666-----|
|-777-7-7---9999999----777--7-7---9999999-----|
|-xxx--x-x--------------xxx--x-x---------------|
|-555--5-5--------------555--5-5--------------|
|----------------------------------------------|

|-------------------------------------------------|
|------------6666666---------------6666666--------|
|-777-7-7---9999999----777--7-7---9999999--------|
|-xxx--x-x--------------xxx--x-x------------------|
|-555--5-5--------------555--5-5------------000--|
|--------------------------------------------000--|

2:25-2:34
|-----------------------------------|
|-----------------------------------|
|-7-7-7-7-7-7-7-7--6-6-6-6-6-6-6-6--|
|-x-x-x-x-x-x-x-x--x-x-x-x-x-x-x-x--|
|-5-5-5-5-5-5-5-5--4-4-4-4-4-4-4-4--|
|-----------------------------------|

-------------------------------|
-------------------------------|
-5-5-5-5-5-5-5-5--6-6-6-6-6~---|
-x-x-x-x-x-x-x-x--x-x-x-x-x~---|
-3-3-3-3-3-3-3-3--4-4-4-4-4~---|
-------------------------------|

2:35-2:44
|-------------------------------------------------------|
|-----6----6----6----6----6------6----6----6----6----6--|
|---9----9----9----9----9------9----9----9----9----9----|
|-7----7----7----7----7------0----0----0----0----0------|
|-------------------------------------------------------|
|-------------------------------------------------------|

|----------------------------------------------------|
|-----6----6----6----6----6------6----6-----6~-------|
|---9----9----9----9----9------9----9----9-9~-------|
|-7----7----7----7----7------0----0----0----0~-------|
|----------------------------------------------------|
|----------------------------------------------------|

2:44-3:05
|-------------------------------------------|
|-------------------------------------------|
|--777---7-7-777777-------------------------|
|--xxx---x-x-xxxxxx--777---7-7-777777-------|
|--555---5-5-555555--777-0-7-7-777777-------|
|------0-------------777-0-7-7-777777-------|

----------------------------------------------------|
----------------------------------------------------|
---7---7-7----7----7777----10--7-7----10---10----10-|
---x---x-x----x----xxxx----x---x-x----x----x-----x--|
---5---5-5----5----5555----8---5-5----8----8-----8--|
-0---0-----00---00-------0---0-----00---00----00----|
           ..   ..                 ..   ..    ..
|-------------------------------------------|
|-------------------------------------------|
|--777---7-7-777777-------------------------|
|--xxx---x-x-xxxxxx--777---7-7-777777-------|
|--555---5-5-555555--777-0-7-7-777777-------|
|------0-------------777-0-7-7-777777-------|

----------------------------------------------------|
----------------------------------------------------|
---7---7-7----7----7777----10--7-7----10---10----10-|
---x---x-x----x----xxxx----x---x-x----x----x-----x--|
---5---5-5----5----5555----8---5-5----8----8-----8--|
-0---0-----00---00-------0---0-----00---00----00----|
           ..   ..                 ..   ..    ..

3:06-3:14
|------------------------------------------------|
|------------------------------------------------|
|--7-7-7--9-9-9--10-10--12-12-12-12-12-12-12-12--|
|------------------------------------------------|
|------------------------------------------------|
|------------------------------------------------|
                                                        X2
|-----------------------------------------|
|-----------------------------------------|
|--10-10-10--9-9-9--7-7--9-9-9-9-9-9-9-9--|
|-----------------------------------------|
|-----------------------------------------|
|-----------------------------------------|

3:15-3:25
|---------------------------------------------------|
|---------------------------------------------------|
|--7-7-7--9-9-9--10-10-10--7-7-7--9-9-9--10-10-10---|
|---------------------------------------------------|
|---------------------------------------------------|
|---------------------------------------------------|
                                                        X2

|-----------------------------------------|
|---------------------------10b-10-1010b-|
|--10-10-10--7-7-7--9-9-9-----------------|
|-----------------------------------------|
|-----------------------------------------|
|-----------------------------------------|

3:26-3:48

|13-13-13--10-10-10--12-12-12--13-----|
|-------------------------------------|
|-------------------------------------|
|-------------------------------------|
|-------------------------------------|
|-------------------------------------|

--------------------------------------------------|
---10h11-10---------10----------------------------|
--------------12-12---12--10-10--9-9--10-10--9-9-|
--------------------------------------------------|
--------------------------------------------------|
--------------------------------------------------|

|13-13-13--10-10-10--12-12-12--13-----|
|-------------------------------------|
|-------------------------------------|
|-------------------------------------|
|-------------------------------------|
|-------------------------------------|

-----------------------------------------|
---10h11-10---------10-------------------|
--------------12-12---12--9-10--910~--|
-----------------------------------------|
-----------------------------------------|
-----------------------------------------|
Related for The Sugar Sickness tab