Song name
# A B C D E F G H I J K L M N O P Q R S T U V W X Y Z

Dead And Divine - For Your Health tab

*Use of delay effected needed. Chords in parenthesis are the repeats from the delay effect.

0:00-0:21
|------------------------------------------------------------------------|
|------------------------------------------------------------------------|
|------------------------------------------------------------------------|
|------------------------------------------------------------------------|
|-12-(12)-(12)-(12)-10-(10)-(10)-(10)-12-(12)-(12)-(12)-10-(10)-(10)-(10)|
|-8--(8)--(8)--(8)--8--(8)--(8)--(8)--0--(0)--(0)--(0)--0--(0)--(0)--(0)-|

0:22-1:36
Guitar 1 - Plays this part repeatedly till the end.
|------------------------------------------|
|------------------------------------------|
|------------------------------------------|
|------------------------------------------|
|---12---12---12---12---10---10---10---10--|
|-8----8----8----8----8----8----8----8-----|


-------------------------------------------|
-------------------------------------------|
-------------------------------------------|
-------------------------------------------|
---12---12---12---12---10---10---10---10---|
-0----0----0----0----0----0----0----0------|


1:16-1:36
Guitar 2 - Plays this part repeatedly till the end.
|------------------------------------------------------------------------|
|------------------------------------------------------------------------|
|------------------------------------------------------------------------|
|------------------------------------------------------------------------|
|-12-(12)-(12)-(12)-10-(10)-(10)-(10)-12-(12)-(12)-(12)-10-(10)-(10)-(10)|
|-8--(8)--(8)--(8)--8--(8)--(8)--(8)--0--(0)--(0)--(0)--0--(0)--(0)--(0)-|
Tap to rate this tab
 
# A B C D E F G H I J K L M N O P Q R S T U V W X Y Z