Song name
# A B C D E F G H I J K L M N O P Q R S T U V W X Y Z

Dead And Divine - Neon Jesus tab

I adjusted a few parts from matt miller's already existing tab which i felt wasn't complete.

Drop C
CGCFAD

b = bend
^ = soft mute (harmonic?)

Dead and divine
The machines we are
Neon Jesus
2009

0:00-0:02
|--------------|
|--------------|
|-----7777-----|
|-----7777-----|
|-----5555-----|
|--------------|


0:03-0:21
|------------------------------------------------------|
|------------------------------------------------------|
|--------------------------------------------------3---|
|----------------------------------------66666-----1---|
|----------------6666666-----------------66666-----1---|
|-6p3p0--3h5p0-6-6666666--6p3p0--3h5p0-6-66666--00-1---|
                                                ..
|------------------------------------------------------|
|------------------------------------------------------|
|--------------------------------------------------3---|
|----------------------------------------66666-----1---|
|----------------6666666-----------------66666-----1---|
|-6p3p0--3h5p0-6-6666666--6p3p0--3h5p0-6-66666--00-1---|
                                                ..
|------------------------------------------------------|
|------------------------------------------------------|
|--------------------------------------------------3---|
|----------------------------------------66666-----1---|
|----------------6666666-----------------66666-----1---|
|-1h3p0--3h5p0-6-6666666--1h3p0--3h5p0-6-66666--00-1---|
                                                ..
|------------------------------------------------------|
|------------------------------------------------------|
|--------------------------------------------------3---|
|----------------------------------------66666-----1---|
|----------------6666666-----------------66666-----1---|
|-1h3p0--3h5p0-6-6666666--6p3p0--3h5p0-6-66666--00-1---|
                                                ..

0:22-0:31
|--------------------------------------------|
|--------------------------------------------|
|--------------------------------------------|
|--------------------------------------------|
|-0~---------------------------------0-0-----|
|-0~--12-12-12-12-12-12-12-12-12-12--0-0-----|

-----------------------------------------|
-----------------------------------------|
-----------------------------------------|
-----------------------------------------|
-----------------------------------------|
--12-12-12-12-12-12---3-3-3-3--6-6-6-6---|

|--------------------------------------------|
|--------------------------------------------|
|--------------------------------------------|
|--------------------------------------------|
|-0~---------------------------------0-0-----|
|-0~--12-12-12-12-12-12-12-12-12-12--0-0-----|

-----------------------------------------|
-----------------------------------------|
-----------------------------------------|
-----------------------------------------|
-----------------------------------------|
--12-12-12-12-12-12---3-3-3-3--6-6-6-6---|


0:32-0:40
|------------------------------------------------------|
|------------------------------------------------------|
|--------------------------------------------------3---|
|----------------------------------------66666-----1---|
|----------------6666666-----------------66666-----1---|
|-6p3p0--3h5p0-6-6666666--1p3p0--3h5p0-6-66666--00-1---|
                                                ..
|--------------------------------------------------|
|--------------------------------------------------|
|--------------------------------------------------|
|-----------------------------------------6-6-66---|
|----------------6666666------------------6-6-66---|
|-6p3p0--3h5p0-6-6666666--1p3p0--3h5p0-00-6-6-66---|


0:41-0:51
|-----------------------------------------|
|--b---------b---------b---------b--------|
|--7---------7---------7---------7--------|
|--7---------7---------7---------7--------|
|--5--0-0-0--5--0-0-0--5--0-0-0--5-0-0-0--|
|-----0-0-0-----0-0-0-----0-0-0----0-0-0--|

-------------------------------------|
-b-------b---------b--------b--------|
-7-------7---------7--------7--------|
-7-------7---------7--------7--------|
-5--0-0--5--0-0-0--5-0-0-0--5-0-0-0--|
----0-0-----0-0-0----0-0-0----0-0-0--|

|-----------------------------------------|
|--b---------b---------b---------b--------|
|--7---------7---------7---------7--------|
|--7---------7---------7---------7--------|
|--5--0-0-0--5--0-0-0--5--0-0-0--5-0-0-0--|
|-----0-0-0-----0-0-0-----0-0-0----0-0-0--|


0:52-0:55  b for bending the strings played
|------------------------|
|--b--b--b--b--b--b--b---|   
|--77-77-77-77-77-77-7---|   
|--77-77-77-77-77-77-7---|
|--55-55-55-55-55-55-5---|
|------------------------|


0:56-1:24 Figure out the strum pattern for yourself
|-------------------------------------------------|
|-------------------------------------------------|
|-------------------------------------------------|    
|-0---------3---------5---------3-----7--xx-xx----|  
|-0---------3---------5---------3-----7--xx-xx----|
|-0---------3---------5---------3-----7--xx-xx----|
                                                     
--------------------------------------------------|
--------------------------------------------------|
--------------------------------------------------|
--3---------0---------5---------3-----7-----------|
--3---------0---------5---------3-----7-----------|
--3---------0---------5---------3-----7-----------|


1:25-1:39     ^ = Like a soft mute on the 8th fret (harmonic?)
|------------------------------------------------------------|
|------------------------------------------------------------|
|------------------------------------------------------------|
|------------------------------------------------------------|
|-0--000-0-00----0--000-0-00----0--000-0-00------------------|
|-0--000-0-00----0--000-0-00----0--000-0-00---88888--11111---|   
     ^^^            ^^^            ^^^    
|------------------------------------------------------------|
|------------------------------------------------------------|
|------------------------------------------------------------|
|------------------------------------------------------------|
|-0--000-0-00----0--000-0-00----0--000-0-00------------------|
|-0--000-0-00----0--000-0-00----0--000-0-00---88888--11111---|
     ^^^            ^^^            ^^^
    

1:40-1:42
|---------------------------------------------------|
|---------------------------------------------------|
|---------------------------------------------------|
|---------------------------------------------------|
|---------------------------------------------------|
|-12-0-0-12-12-0-12-0-0-12-12-0-12-0-0-12-12-0-12\--|


1:43-1:52
|------------------------------------------------------|
|------------------------------------------------------|
|--------------------------------------------------3---|
|----------------------------------------66666-----1---|
|----------------6666666-----------------66666-----1---|
|-6p3p0--3h5p0-6-6666666--6p3p0--3h5p0-6-66666--00-1---|
                                                ..
|------------------------------------------------------|
|------------------------------------------------------|
|--------------------------------------------------3---|
|----------------------------------------66666-----1---|
|----------------6666666-----------------66666-----1---|
|-6p3p0--3h5p0-6-6666666--1p3p0--3h5p0-6-66666--00-1---|
                                                ..


1:53-2:02
|--------------------------------------------|
|--------------------------------------------|
|--------------------------------------------|
|-0~---------------------------------0-0-----|
|-0~--12-12-12-12-12-12-12-12-12-12--0-0-----|

-----------------------------------------|
-----------------------------------------|
-----------------------------------------|
-----------------------------------------|
-----------------------------------------|
--12-12-12-12-12-12---3-3-3-3--6-6-6-6---|

|--------------------------------------------|
|--------------------------------------------|
|--------------------------------------------|
|-0~---------------------------------0-0-----|
|-0~--12-12-12-12-12-12-12-12-12-12--0-0-----|

-----------------------------------------|
-----------------------------------------|
-----------------------------------------|
-----------------------------------------|
-----------------------------------------|
--12-12-12-12-12-12---3-3-3-3--6-6-6-6---|

2:03-2:05
|------------------------|
|--b--b--b--b--b--b--b---|  
|--77-77-77-77-77-77-7---|    Bend 
|--77-77-77-77-77-77-7---|
|--55-55-55-55-55-55-5---|
|------------------------|

2:06-2:34
|-------------------------------------------------|
|-------------------------------------------------|
|-------------------------------------------------|
|-0---------3---------5---------3-----7--xx-xx----|
|-0---------3---------5---------3-----7--xx-xx----|
|-0---------3---------5---------3-----7--xx-xx----|

--------------------------------------------------|
--------------------------------------------------|
--------------------------------------------------|
--3---------0---------5---------3-----7-----------|
--3---------0---------5---------3-----7-----------|
--3---------0---------5---------3-----7-----------|

2:35-2:49
|----------------------------------------------------|
|----------------------------------------------------|
|----------------------------------------------------|
|-3-3-3-3-3-3-3-3-3-3-3-3--0-0-0-0-0-0-0-0-0-0-0-0---|
|-3-3-3-3-3-3-3-3-3-3-3-3--0-0-0-0-0-0-0-0-0-0-0-0---|
|-3-3-3-3-3-3-3-3-3-3-3-3--0-0-0-0-0-0-0-0-0-0-0-0---|

|----------------------------------------------------|
|----------------------------------------------------|
|----------------------------------------------------|
|-3-3-3-3-3-3-3-3-3-3-3-3--0-0-0-0-0-0-7-7-7-7-7-7---|
|-3-3-3-3-3-3-3-3-3-3-3-3--0-0-0-0-0-0-7-7-7-7-7-7---|
|-3-3-3-3-3-3-3-3-3-3-3-3--0-0-0-0-0-0-7-7-7-7-7-7---|

2:50-3:13     ^ = Like a soft mute on the 8th fret (harmonic?)
|------------------------------------------------------------|
|------------------------------------------------------------|
|------------------------------------------------------------|
|------------------------------------------------------------|
|-0--000-0-00----0--000-0-00----0--000-0-00------------------|
|-0--000-0-00----0--000-0-00----0--000-0-00---88888--11111---|
     ^^^            ^^^            ^^^
|------------------------------------------------------------|
|------------------------------------------------------------|
|------------------------------------------------------------|
|------------------------------------------------------------|
|-0--000-0-00----0--000-0-00----0--000-0-00------------------|
|-0--000-0-00----0--000-0-00----0--000-0-00---88888--11111---|
     ^^^            ^^^            ^^^
|------------------------------------------------------------|
|------------------------------------------------------------|
|------------------------------------------------------------|
|------------------------------------------------------------|
|-0--000-0-00----0--000-0-00----0--000-0-00----0-000-0-------|
|-0--000-0-00----0--000-0-00----0--000-0-00----0-000-0-------|
     ^^^            ^^^            ^^^           ^^^
Tap to rate this tab
 
# A B C D E F G H I J K L M N O P Q R S T U V W X Y Z