Song name
# A B C D E F G H I J K L M N O P Q R S T U V W X Y Z

Dead And Divine - Asphyxia Fiend tab

Band: Dead and Divine
Album: Antimacy
Song: Asphyxia Fiend

This guitar tab is like 99% correct.
I can claim this mostly because i followed
a tutorial made by one of the guitarist who was in the band, and partly by hearing.
Link to the tutorial: https://www.youtube.com/watch?v=204KgOjRfXQ

b = bend
/ = slide up
\ = slide down
? = ?
. = palm mute
* = mute directly after playing
~ = let ring

Figure 1, 0:00-0:09

Play this figure 2 times. (Whatever...just one guitar)
b = bend

D|-----------------------------------------------|
A|-----3b---------3b---------3b---------3b-------|
F|-----3b---------3b---------3b---------3b-------|
C|-----------------------------------------------|
G|---0----0-1-4-0----0-1-4-0----0-1-4-0----0-0---|
C|---0----0-1-4-0----0-1-4-0----0-1-4-0----0-0---|

Figure 2, 00:09-00:16
Play this figure 2 times. (Both guitars)

D|-----------------------------------------------|
A|-----3b---------3b---------3b---------3b-------|
F|-----3b---------3b---------3b---------3b-------|
C|-----------------------------------------------|
G|---0----0-1-4-0----0-1-4-0----0-1-4-0----0-0---|
C|---0----0-1-4-0----0-1-4-0----0-1-4-0----0-0---|

Figure 3, 00:17-00:21 (Both guitars)
/ = slide up
\ = slide down
x = play the strings while they're muted with your fret hand

D|--------------------------------------------|
A|---------------6b---------------6b----------|
F|---------------6b---------------6b----------|
C|--------------------------------------------|
G|---1/6-8-5-7-5----5-7-7-8-5-7-5----5-0-8\---|
C|---1/6-8-5-7-5----5-7-7-8-5-7-5----5-0-8\---|
                                       .
Figure 4, 00:22-00:29 (Both guitars)
? = something i can't tab out

D|----------------------------------------????????-|
A|-----3b---------3b---------3b-----------????????-|
F|-----3b---------3b---------3b-----------????????-|
C|----------------------------------------????????-|
G|---0----0-1-4-0----0-1-4-0----0-1-4-0---????????-|
C|---0----0-1-4-0----0-1-4-0----0-1-4-0---????????-|

D|-------------------------------------------------|
A|-----3b---------3b---------3b---------3b---------|
F|-----3b---------3b---------3b---------3b---------|
C|-------------------------------------------------|
G|---0----0-1-4-0----0-1-4-0----0-1-4-0----0-1/6---|
C|---0----0-1-4-0----0-1-4-0----0-1-4-0----0-1/6---|

Figure 5, 00:30-00:39 (Both guitars)

D|-----------------------------------------------|
A|-------------6b-------------------6b-----------|
F|-------------6b-------------------6b-----------|
C|-----------------------------------------------|
G|---8-5-7-5-5----5-7-7-7-8-5-7-5-5----5-7-7-7---|
C|---8-5-7-5-5----5-7-7-7-8-5-7-5-5----5-7-7-7---|

D|-----------------------------------------------|
A|-------------6b-------------------6b-----------|
F|-------------6b-------------------6b-----------|
C|-----------------------------------------------|
G|---8-5-7-5-5----5-7-7-7-8-5-7-5-5----5-0-8\-0--|
C|---8-5-7-5-5----5-7-7-7-8-5-7-5-5----5-0-8\-0--|
                                         .
Figure 6, 00:39-00:46 (2nd guitar)
. = palm mute

D|----------------------------------------------------------------------------------|
A|---------6---------6---------6---------6---------6--------6---------6-------6-6---|
F|-------9---9-----9---9-----9---9-----9---9-----9---9----9---9-----9---9-----9-9---|
C|---8-8-------8-8-------7-7-------7-7-------8-8-------8-8------7-7-------7-7-------|
G|----------------------------------------------------------------------------------|
C|----------------------------------------------------------------------------------|
     . .       . .       . .       . .       . .       . .      . .       . .

Notice that i've written the tab for the 1st and 2nd guitar seperately here.
* = mute the strings completely right after you've played them.

Order for A: 7A, 8A, 7A, 8A, 8A

Figure 7A, 00:47-00:55, 01:00-01:08 (1st guitar)
Play this one time.
D|---------------5-5-------------8-8-------------5-5---------8b/12---|
A|-------5-5-6-6---------5-5-6-6---------5-5-6-6---------5-5---------|
F|---7-7-------------7-7-------------7-7-------------7-7-------------|
C|-------------------------------------------------------------------|
G|-------------------------------------------------------------------|
C|-------------------------------------------------------------------|

Figure 8A, 00:56-01:00, 01:08-01:16 (1st guitar)
* = mute directly after playing.
Play this one time the first time. Then play it twice, but begin the 2nd time like
                                                                   this      and continue
D|-------------------------------------------------------------|-----------| that to a
A|-----14-14-14-14-14-14-14--------14-14-14-14-14--------------|---14-14---| full 8A
F|-------------------------------------------------------------|-----------|
C|-----12-12-12-12-12-12-12--------13-13-13-13-13--------------|---12-12---|
G|---0----------------------0-0--0----------------0*-0*--0-0---|-----------|
C|---0----------------------0-0--0----------------0*-0*--0-0---|-----------|
                              .                          .

Order for B: 7B, 8B, 7B, 8B, 8B

Figure 7B, 00:47-00:55,01:00-01:08 (2nd guitar)
     A lot of these             and more...
D|---------------------------------------------------|
A|---------------------------------------------------|
F|---9-9-9-9-9-9-9-9---Mute---9-9-9-9-9-9--9--9--9---|
C|---8-8-8-8-8-8-8-8---Mute---8-8-8-8-8-8--8--8--8---|
G|---8-8-8-8-8-8-8-8---Mute---8-8-8-8-8-8--8--8--8---|
C|---8-8-8-8-8-8-8-8---Mute---8-8-8-8-8-8--8--8--8---|

Figure 8B, 00:56-01:00, 01:08-01:16 (2nd guitar)
* = mute directly after playing.
Play this one time the first time around. Then play it twice, but begin the 2nd time like
                                                           this    and continue
D|-----------------------------------------------------|---------| that to a
A|-----7-7-7-7-7-7-7--------10-10-10-10-10-------------|---7-7---| full 8B
F|-----------------------------------------------------|---------|
C|-----5-5-5-5-5-5-5--------8--8--8--8--8--------------|---5-5---|
G|---0---------------0-0--0---------------0*-0*--0-0---|---------|
C|---0---------------0-0--0---------------0*-0*--0-0---|---------|
                       .                         .

Figure 9, 01:17-01:21 (2nd guitar) (1st guitar might possibly do a pick slide here)


D|---------------------------------------------|
A|---------6---------6---------6---------6-----|
F|-------9---9-----9---9-----9---9-----9---9---|
C|---8-8-------8-8-------7-7-------7-7---------|
G|---------------------------------------------|
C|---------------------------------------------|
     . .       . .       . .       . .

Figure 10, 01:21-01:29 (both guitars)
Play this twice,but end the second time with      this     instead of the last 0.
D|---------------------------------------------|---------|
A|-----3b---------3b---------3b---------3b-----|---------|
F|-----3b---------3b---------3b---------3b-----|---------|
C|---------------------------------------------|---------|
G|---0----0-1-4-0----0-1-4-0----0-1-4-0----0---|---0-0---|
C|---0----0-1-4-0----0-1-4-0----0-1-4-0----0---|---0-0---|
                                                   .
Figure 11, 01:31-01:39 (both guitars)

D|-----------------------------------------------------------------------------|
A|----------------6b----------------6b--------------6b---------------6b--------|
F|----------------6b----------------6b--------------6b---------------6b--------|
C|-----------------------------------------------------------------------------|
G|---0-8\-8-5-7-5----5-7-7-8-5-7-5----5-7-7-8-5-7-5----5-7-7-8-5-7-5----0-8\---|
C|---0-8\-8-5-7-5----5-7-7-8-5-7-5----5-7-7-8-5-7-5----5-7-7-8-5-7-5----0-8\---|
     .                                                                  .

Figure 12, 01:40-01:48 (both guitars)

D|---------------------------------------|
A|---------------------------------------|
F|---------------------------------------|
C|---------------------------------------|
G|---0*--0*--0*--0-0-0*--0*--0*--0-0-0---|
C|---0*--0*--0*--0-0-0*--0*--0*--0-0-0---|
                                     .

Figure 13, 01:49-01:57 (2nd guitar)

D|----------------------------------------------------------------------------------|
A|---------6---------6---------6---------6---------6--------6---------6-------6-6---|
F|-------9---9-----9---9-----9---9-----9---9-----9---9----9---9-----9---9-----9-9---|
C|---8-8-------8-8-------7-7-------7-7-------8-8-------8-8------7-7-------7-7-------|
G|----------------------------------------------------------------------------------|
C|----------------------------------------------------------------------------------|
     . .       . .       . .       . .       . .       . .      . .       . .

Notice that i've written the tab for the 1st and 2nd guitar seperately here.
It's the same thing as before.

Order for A: 14A, 15A, 14A, 15A, 15A

Figure 14A, 01:57-02:05, 02:10-02:18 (1st guitar)
Play this one time.
D|---------------5-5-------------8-8-------------5-5---------8b/12---|
A|-------5-5-6-6---------5-5-6-6---------5-5-6-6---------5-5---------|
F|---7-7-------------7-7-------------7-7-------------7-7-------------|
C|-------------------------------------------------------------------|
G|-------------------------------------------------------------------|
C|-------------------------------------------------------------------|

Figure 15A, 02:06-02:10, 02:19-02:26 (1st guitar)
* = mute directly after playing.
Play this one time the first time. Then play it twice, but begin the 2nd time like
                                                                   this      and continue
D|-------------------------------------------------------------|-----------| that to a
A|-----14-14-14-14-14-14-14--------14-14-14-14-14--------------|---14-14---| full 15A
F|-------------------------------------------------------------|-----------|
C|-----12-12-12-12-12-12-12--------13-13-13-13-13--------------|---12-12---|
G|---0----------------------0-0--0----------------0*-0*--0-0---|-----------|
C|---0----------------------0-0--0----------------0*-0*--0-0---|-----------|
                              .                          .

Order for B: 14B, 15B, 14B, 15B, 15B

Figure 14B, 01:57-02:05,02:10-02:18 (2nd guitar)
     A lot of these             and more...
D|---------------------------------------------------|
A|---------------------------------------------------|
F|---9-9-9-9-9-9-9-9---Mute---9-9-9-9-9-9--9--9--9---|
C|---8-8-8-8-8-8-8-8---Mute---8-8-8-8-8-8--8--8--8---|
G|---8-8-8-8-8-8-8-8---Mute---8-8-8-8-8-8--8--8--8---|
C|---8-8-8-8-8-8-8-8---Mute---8-8-8-8-8-8--8--8--8---|

Figure 15B, 02:06-02:10, 02:19-02:26 (2nd guitar)
* = mute directly after playing.
Play this one time the first time around. Then play it twice, but begin the 2nd time like
                                                           this    and continue
D|-----------------------------------------------------|---------| that to a
A|-----7-7-7-7-7-7-7--------10-10-10-10-10-------------|---7-7---| full 15B
F|-----------------------------------------------------|---------|
C|-----5-5-5-5-5-5-5--------8--8--8--8--8--------------|---5-5---|
G|---0---------------0-0--0---------------0*-0*--0-0---|---------|
C|---0---------------0-0--0---------------0*-0*--0-0---|---------|
                       .                         .

Figure 16A, 02:27-02:35 (2nd guitar)
~ = let ring

D|--------------------------------------|
A|--------------------------------------|
F|--------------------------------------|
C|--------------------------------------|
G|---0*--0*--0*--0-0-0*--0*--0--0-0-0~~~|
C|---0*--0*--0*--0-0-0*--0*--0--0-0-0~~~|
                                    .

Figure 16b, 02:27-02:45 (1st guitar)

A bunch of 0's on the G and C strings with a weird effect, which is explained in the tutorial.
Tap to rate this tab
# A B C D E F G H I J K L M N O P Q R S T U V W X Y Z