Song name
# A B C D E F G H I J K L M N O P Q R S T U V W X Y Z

Dead And Divine - Goodnight Quiet City Acoustic tab

  intro                                (1st)
e|--x----x----x----x----x----x-----x----x----------|
B|--7----8----7----8----7----8----10----8----------|
G|--0----0----0----0----0----0-----0----0----------|
D|--x----x----x----x----0----0-----0----0----------|
A|--7----7----7----7----0----0-----0----0----------|
E|--x----x----x----x----x----x-----x----x----(x2)--|

  pretty you are...
e|--x----x----x----x----x----x-----x----x----------|
B|--7----8----7----8----7----8----10----8----------|
G|--0----0----0----0----0----0-----0----0----------|
D|--x----x----x----x----0----0-----0----0----------|
A|--7----7----7----7----0----0-----0----0----------|
E|--x----x----x----x----x----x-----x----x----(x4)--|

  g1              well make history...
e|---------------------------------|
B|---------------------------------|
G|--7/9----9/11---11/12---12/14----|
D|--x/x----x/-x----x/-x----x/-x----|
A|--5/7----7/-9----9/10---10/12----|
E|---------------------------------|

  g2
e|---------------------------------|
B|---------------------------------|
G|--7/9----9/7----7/5----5/4-------|
D|--x/x----x/x----x/x----x/x-------|
A|--5/7----7/5----5/3----3/2-------|
E|---------------------------------|

  dress you up...
e|--x----x----x----x----x----x-----x----x----------|
B|--7----8----7----8----7----8----10----8----------|
G|--0----0----0----0----0----0-----0----0----------|
D|--x----x----x----x----0----0-----0----0----------|
A|--7----7----7----7----0----0-----0----0----------|
E|--x----x----x----x----x----x-----x----x----(x4)--|

  g1              well make history...
e|---------------------------------|
B|---------------------------------|
G|--7/9----9/11---11/12---12/14----|
D|--x/x----x/-x----x/-x----x/-x----|
A|--5/7----7/-9----9/10---10/12----|
E|---------------------------------|

  g2
e|---------------------------------|
B|---------------------------------|
G|--7/9----9/7----7/5----5/4-------|
D|--x/x----x/x----x/x----x/x-------|
A|--5/7----7/5----5/3----3/2-------|
E|---------------------------------|


  I never thought...  g1
e|---------------------------------|
B|---------------------------------|
G|--7/9----9/11---11/12---12/14----|
D|--x/x----x/-x----x/-x----x/-x----|
A|--5/7----7/-9----9/10---10/12----|
E|---------------------------------|

  g2
e|---------------------------------|
B|---------------------------------|
G|--7/9----9/7----7/5----5/4-------|
D|--x/x----x/x----x/x----x/x-------|
A|--5/7----7/5----5/3----3/2-------|
E|---------------------------------|

  one last kiss...
e|-----0------------0-----------------|
B|-------7------------7---------------|
G|---------0~-----------0~------------|
D|------------------------------------|
A|------------------------------------|
E|-0~------------8~-------------------|

  one last kiss...
e|-----0------------0-----------------|
B|-------7------------7---------------|
G|---------0------------0-------------|
D|------------------------------------|
A|------------------------------------|
E|-0~------------8~-------------------|
Tap to rate this tab
# A B C D E F G H I J K L M N O P Q R S T U V W X Y Z