Song name
# A B C D E F G H I J K L M N O P Q R S T U V W X Y Z

Dead Blue Sky - To Live In Dreams tab

www.myspace.com/dbsmetal

DEAD BLUE SKY - TO LIVE IN DREAMS (D TUNING)

    |-----------------------------------------------------------|
    |---------------------------------------12h13p12----7h8p7---|
GTR |------9------9----------12----------------------12-------7-|
1+2 |-9999-9-9999-9-12121212-12----------10---------------------|
    |-7777-7-7777-7-10101010-10-10101010-10---------------------|
    |---------------------------8-8-8-8--8----------------------|
      PMPM   PMPM   PMPMPMPM    PMPMPMPM                       

    |-----------------------------------------------------|
    |------------------------------------3-----2----------|
GTR |------7---------------------------4------------------|
1+2 |-7777-7--------444444-555555-4444-4---5-4---5-4--4h5-|
    |-5555-5-555555---------------2222-2------------------|
    |-----------------------------------------------------|
      PMPM   PMPMPM PMPMPM PMPMPM PMPM

    |-----------------------------------------------------------|
    |---------------------------------------12h13p12----7h8p7---|
GTR |------9------9----------12----------------------12-------7-|
1+2 |-9999-9-9999-9-12121212-12----------10---------------------|
    |-7777-7-7777-7-10101010-10-10101010-10---------------------|
    |---------------------------8-8-8-8--8----------------------|
      PMPM   PMPM   PMPMPMPM    PMPMPMPM                        

    |-----------------------------------------------------|
    |-----------------------------------------------------|
GTR |------7---------------------------4---------4--------|
1+2 |-7777-7--------444444-555555-4444-4---------4--------|
    |-5555-5-555555---------------2222-2---------2--------|
    |-----------------------------------------------------|
      PMPM   PMPMPM PMPMPM PMPMPM PMPM

----------------------------------------------------------------

    |-----------------------------------------------------------|
    |------------------12-----------12h13p12----7h8p7-----------|
GTR |-9h10p9---12--14-----9h10p9-------------12-------7-6h7p6---|
1+2 |--------9-------------------10---------------------------7-| 
    |-----------------------------------------------------------|
    |-----------------------------------------------------------|

    |--------------------------------------------------|
    |---------------------------3-----2----------------|
GTR |-------------------4h5p4--------------------------|
1+2 |----------44444444-------4---5-4---5-4--4h5-------| 
    |-55555555-----------------------------------------|
    |--------------------------------------------------|

REPEAT SECTION x3
---------------------------------------------------------------


    |-----------------------------------------------------------|
    |------------------12-----------12h13p12----7h8p7-----------|
GTR |-9h10p9---12--14-----9h10p9-------------12-------7-6h7p6---|
1+2 |--------9-------------------10---------------------------7-| 
    |-----------------------------------------------------------|
    |-----------------------------------------------------------|

    |-------------------------|
    |-------------------------|
GTR |-------------------4h5p4-|
1+2 |----------44444444-------| 
    |-55555555----------------|
    |-------------------------|

   |--------------------------|
   |--------------------------|
GTR|-4------------------------|
 1 |-4------------------------| 
   |-2------------------------|
   |--------------------------|

   |--------------------------|
   |--------------------------|
GTR|--------------------------|
 2 |-pick slide---------------| 
   |--------------------------|
   |--------------------------|

    |------ x2 -------|--------------------|-----------------|
    |-----------------|--------------------|-----------------|
GTR |-------------5-4-|--------------------|-------------5-4-|
1+2 |-4h5p4-5h7p5-----|-7777-7-7-7777-7777-|-4h5p4-5h7p5-----|
    |-----------------|-5555-5-5-5555-5555-|-----------------|
    |-----------------|-0000-0-0-0000-0000-|-----------------|


    |------------------------------------------------|
    |-121212-101010-888------------------------------|
GTR |-------------------111111-999-------------------|
1+2 |------------------------------121212-101010-999-|
    |------------------------------------------------|
    |------------------------------------------------|

    |---------------------------------------------------------------|
    |---------------------------------------------------------------|
GTR |-9---9h12p9-12h14p12-11h12p11\9--------------------------------|
1+2 |--------------------------------7---9h12p9-11h12p11-9h11p9-7-4-|
    |---------------------------------------------------------------|
    |---------------------------------------------------------------|

    |-------------------------------------------------|
    |-------------------------------------------------|
GTR |-------------------------------------------------|
1+2 |-9h11p9-12-11h12p11-9\7-9---9h11p9-12-11h12p11-7-|
    |-------------------------------------------------|
    |-------------------------------------------------|

--------------------------------------------------------------

    |-- x4 -|----------------------------------888----------|
    |-------|-131313121212101010-888------------------------|
GTR |-------|------------------------------5544---444555444-|
 1  |-4h5p4-|------------------------4h5-4------------------| 
    |-------|-----------------------------------------------|
    |-------|-----------------------------------------------|
                                        PMPMPM

    |-- x4 -|----------------------------------8------------|
    |-------|-131313121212101010-888----------------8-------|
GTR |-------|------------------------------5544----------9--|
 2  |-4h5p4-|------------------------4h5-4------------------|
    |-------|-----------------------------------------------|
    |-------|-----------------------------------------------|

    |--------------------------------------------------------|
    |-131313121212101010888171717151515131313121212----------|
GTR |-----------------------------------------------5--4-4-4-|
1+2 |-----------------------------------------------5--4-2-4-| 
    |-----------------------------------------------3--2---2-|
    |--------------------------------------------------------|

PLAY WHOLE SECTION x2
--------------------------------------------------------------
                                      
   |------------------------------------------------------------------|
   |-----------------------------0---12-------------------5-3---------|
GTR|-------4-----12-11-9-7---------0----12-9-7----------------4---4---|
 1 |-----------------------5-5-5---------------7-7-7--7-7-----------4-|
   |-2-2-2---2-2-----------3-3-3---------------5-5-5--5-5-------------|
   |-0-0-0---0-0-------------------------------0-0-0--0-0-------------|

THE END   
Tap to rate this tab
# A B C D E F G H I J K L M N O P Q R S T U V W X Y Z