Song name
# A B C D E F G H I J K L M N O P Q R S T U V W X Y Z

Dead Blue Sky - Essence Of Creation tab

DEAD BLUE SKY - THE ESSENCE OF CREATION

acoustic intro

    d|-------0-------|
    A|-----6---6---6-|
GTR F|-----------7---|
 1  C|---7-----------| x4
    G|-5-------------|
    C|---------------|

    d|---------------|
    A|---------------|
GTR F|-------2-------|
 2  C|-0-----0-------| x4
    G|----0----------|
    C|---------------|

    d|---------------|
    A|---------------|
GTR F|-2-------------|
1+2 C|-0-------------|
    G|---------------|
    C|---------------|

    d|------------------------|
    A|------------------------|
GTR F|-------7h9p7-7h9p7-9h10-|
 1  C|------------------------| 
    G|-5-5-5------------------|
    C|-7-7-7------------------|
       PMP M

    d|----------------------|
    A|----------------------|
GTR F|----------------------|
 2  C|----------------------| 
    G|-5-5-5-5h7p5-5h7p5-8--|
    C|-7-7-7----------------|
       PMP M

    d|------------------------|
    A|------------------------|
GTR F|-------7h9p7-7h9p7-10\0-|
 1  C|------------------------| 
    G|-5-5-5------------------|
    C|-7-7-7------------------|
       PMP M

    d|----------------------|
    A|----------------------|
GTR F|----------------------|
 2  C|----------------------| 
    G|-5-5-5-5h7p5-5h7p5-8--|
    C|-7-7-7----------------|
       PMP M

    d|------------------------|
    A|------------------------|
GTR F|-------7h9p7-7h9p7-9h10-|
 1  C|------------------------| 
    G|-5-5-5------------------|
    C|-7-7-7------------------|
       PMP M

    d|----------------------|
    A|----------------------|
GTR F|----------------------|
 2  C|----------------------| 
    G|-5-5-5-5h7p5-5h7p5-8--|
    C|-7-7-7----------------|
       PMP M

    d|----- x2 --------|------------------------------|
    A|-----------------|------------------------------|
GTR F|-999-777-555-----|-999-777-101010-999-7-7h9p7-5-|
1+2 C|-------------999-|------------------------------|
    G|-----------------|------------------------------|
    C|-----------------|------------------------------|

    d|--------------------------------------------------|
    A|-12----8t12p0-10t12p0-121212----------------------|
GTR F|----12-----------------------121212-111111--------|
1+2 C|-------------------------------------------121212-|
    G|--------------------------------------------------|
    C|--------------------------------------------------|

    d|--------------------------|
    A|--------------------------|
GTR F|-------7h9p7-7h9p7-9h10p9-|
 1  C|--------------------------|
    G|-5-5-5--------------------|
    C|-7-7-7--------------------|
       PMP M

    d|----------------------|
    A|----------------------|
GTR F|----------------------|
 2  C|----------------------| 
    G|-5-5-5-5h7p5-5h7p5-8--|
    C|-7-7-7----------------|
       PMP M

    d|------------------------|
    A|------------------------|
GTR F|-------7h9p7-7h9p7-10PH-|
 1  C|------------------------| 
    G|-5-5-5------------------|
    C|-7-7-7------------------|
       PMP M

    d|----------------------|
    A|----------------------|
GTR F|----------------------|
 2  C|----------------------| 
    G|-5-5-5-5h7p5-5h7p5-8--|
    C|-7-7-7----------------|
       PMP M


    d|--------------------------|
    A|--------------------------|
GTR F|-------7h9p7-7h9p7-9h10p9-|
 1  C|--------------------------|
    G|-5-5-5--------------------|
    C|-7-7-7--------------------|
       PMP M

    d|----------------------|
    A|----------------------|
GTR F|----------------------|
 2  C|----------------------| 
    G|-5-5-5-5h7p5-5h7p5-8--|
    C|-7-7-7----------------|
       PMP M


    d|----- x2 --------|------------------------------|
    A|-----------------|------------------------------|
GTR F|-999-777-555-----|-999-777-101010-999-7-7h9p7-5-|
1+2 C|-------------999-|------------------------------|
    G|-----------------|------------------------------|
    C|-----------------|------------------------------|

    d|--------------------------------------------------|
    A|-12----8t12p0-10t12p0-121212----------------------|
GTR F|----12-----------------------121212-111111--------|
1+2 C|-------------------------------------------121212-|
    G|--------------------------------------------------|
    C|--------------------------------------------------|

repeat all of above minus acoustic part

    d|-------------------------|
    A|----------15-------------|
GTR F|-------------------------|
 1  C|-14-16-17----17-16-------|
    G|-------------------------|
    C|-------------------------|

    d|-------------------------|
    A|-----------------5*------|
GTR F|-9----5*----4------------|
 2  C|---------------------3*--|
    G|-------------------------|
    C|-------------------------|

    d|-------------------------|
    A|----------15-------------|
GTR F|-------------------------|
1+2 C|-14-16-17----17-16-------| x8
    G|-------------------------|
    C|-------------------------|

--------------------------------------------------------

    d|---------------|
    A|---------------|
GTR F|---------------|
 1  C|--------9------| x4
    G|-7-9-10---10-9-|
    C|---------------|

    d|---------------|
    A|---------------|
GTR F|---------------|
 2  C|---5-4---5-4---| x4
    G|-5-----5-------|
    C|---------------|

    d|-------------------------------------------------|
    A|-------------------------------------------------|
GTR F|--------------------5h7-4h5p4--------5h7-4h5p4---|
1+2 C|--------7---------------------5----------------5-|
    G|-7-9-10----10-9----------------------------------|
    C|-------------------------------------------------|

    d|------------------------------|
    A|------------------------------|
GTR F|-12-11----12-11----12-11------|
1+2 C|-------12-------12-------12-9-|
    G|------------------------------|
    C|------------------------------|

repeat whole section x4
-------------------------------------------------------

    d|------------------------------------------------------|
    A|----101010101010-888888-------------------8h10p8------|
GTR F|-99---------------------101010101010-9h10--------10p9-|
1+2 C|------------------------------------------------------| 
    G|------------------------------------------------------|
    C|------------------------------------------------------|

    d|-------------------------------------------------|
    A|----101010101010-888888--------------------------|
GTR F|-99---------------------101010101010-------------|
1+2 C|-------------------------------------------------| 
    G|-----------------------------------------5555555-|
    C|-------------------------------------000---------|
                                           PMPMPMPMPM

BREAK

------------------------------------------------------------

    d|------------------------------------------------------|
    A|----101010101010-888888-------------------8h10p8------|
GTR F|-99---------------------101010101010-9h10--------10p9-|
1+2 C|------------------------------------------------------| 
    G|------------------------------------------------------|
    C|------------------------------------------------------|

    d|-------------------------------------------------|
    A|----101010101010-888888--------------------------|
GTR F|-99---------------------101010101010-------------|
1+2 C|-------------------------------------------------| 
    G|-----------------------------------------5555555-|
    C|-------------------------------------000---------|
                                           PMPMPMPMPM

repeat whole section x2
-----------------------------------------------------------

    d|-------------------------------------------|
    A|---------8h10-8h10-6h8-6h8-11-10-8-11-10-8-|
GTR F|-------------------------------------------|
1+2 C|-000000------------------------------------|
    G|-------------------------------------------|
    C|-------------------------------------------|
       PMPMPM

    d|-------------------------------------------|
    A|--------8h10-8h10-11h13-11h13-10h11-10h11--|
GTR F|-------------------------------------------|
1+2 C|-000000------------------------------------|
    G|-------------------------------------------|
    C|-------------------------------------------|
       PMPMPM

repeat x2
--------------------------------------------------------

    d|------------------------------|
    A|------------------------------|
GTR F|-----2PH----------------------|
1+2 C|---------777777-555555-888888-|
    G|-0-0--------------------------|
    C|-0-0--------------------------|
       P M

    d|------------------------------------|
    A|------------------------------------|
GTR F|-----2PH----------------------------|
1+2 C|---------777777-101010101010-888888-|
    G|-0-0--------------------------------|
    C|-0-0--------------------------------|
       P M

repeat x4
--------------------------------------------------------

    d|-------------------------------------|
    A|-------------------------------------|
GTR F|-------------------------------------|
1+2 C|-8-----------------------------------|
    G|-------------------------------------|
    C|-------------------------------------|

END
Tap to rate this tab
# A B C D E F G H I J K L M N O P Q R S T U V W X Y Z