Guitaretab - guitar tabs
Song name
# A B C D E F G H I J K L M N O P Q R S T U V W X Y Z

Dead Boys - Flame Thrower Love tab

-------------------------------------------------------------------------------
			     FLAMETHROWER LOVE - Dead Boys
-------------------------------------------------------------------------------
Tabbed by: Michel de Bruyn
Email: miesisback@hotmail.com

Tuning: Standard

E--------------------------------------------------------|
B--------------------------------------------------------|
G-4-4-4-4-4-4--4-4-4-4-4-4--2-2-2-2-2-2-2-2-2-2-2-2-2----|   X 2
D-4-4-4-4-4-4--4-4-4-4-4-4--2-2-2-2-2-2-2-2-2-2-2-2-2----|
A-2-2-2-2-2-2--0-0-0-0-0-0--0-0-0-0-0-0-0-0-0-0-0-0-0----|
E--------------------------------------------------------|
     
E----------------------------------|
B----------------------------------|
G----9-9-9-9-9-9-------------------|
D----9-9-9-9-9-9-------------------|     X 9
A----7-7-7-7-7-7----5-4-0-5-4-0-5-4|
E----------------------------------|

E--------------------------------------|
B--------------------------------------|
G----2-2-2-2-2-2-----------------------|  X 2
D----2-2-2-2-2-2-----------------------|
A----0-0-0-0-0-0----5-4-0-5-4-0-5-4----|
E--------------------------------------|
[ Tab from: http://www.guitaretab.com/d/dead-boys/106719.html ]
E--------------------------------------|
B--------------------------------------|
G----9-9-9-9-9-9-----------------------|
D----9-9-9-9-9-9-----------------------|  X 2
A----7-7-7-7-7-7----5-4-0-5-4-0-5-4----|
E--------------------------------------|
            	 
E--------------------------------------------------------|
B--------------------------------------------------------|
G-4-4-4-4-4-4--4-4-4-4-4-4--2-2-2-2-2-2-2-2-2-2-2-2-2----|   X 2
D-4-4-4-4-4-4--4-4-4-4-4-4--2-2-2-2-2-2-2-2-2-2-2-2-2----|
A-2-2-2-2-2-2--0-0-0-0-0-0--0-0-0-0-0-0-0-0-0-0-0-0-0----|
E--------------------------------------------------------|
  
E----------------------------------|
B----------------------------------|
G----9-9-9-9-9-9-------------------|
D----9-9-9-9-9-9-------------------|     X 9
A----7-7-7-7-7-7----5-4-0-5-4-0-5-4|
E----------------------------------|
ONE TWO THREE FOUR

(in between)
E--7-------7-------7-----||-7----~~~~~||10-----10------10---|
B--10b12---10b12--10b12-||-10b12~~~~~||13b15--13b15--13b15|
G-----------------------------------------------------------|   
D-----------------------------------------------------------|
A-----------------------------------------------------------|
E-----------------------------------------------------------|

Solo: 1:12

E--12-----12------12-~~~~~~---------------------12--------------------------------|
B--15b17--15b17---15b17--~~~---------12-----------12--15b16-----------14--14--14--|
G-----------------------------14b16------14b16--------------14----12b---12--12--12| 
D--------------------------------------------------------------14-----------------| 
A---------------------------------------------------------------------------------|
E---------------------------------------------------------------------------------|

     
E-----------------------------------|
B-----------------------------------|
G----9-9-9-9-9-9--------------------|
D----9-9-9-9-9-9--------------------|     X 9
A----7-7-7-7-7-7----5-4-0-5-4-0-5-4-|
E-----------------------------------|

     
E--------------------------------------|
B--------------------------------------|
G----2-2-2-2-2-2-----------------------|  X 2
D----2-2-2-2-2-2-----------------------|
A----0-0-0-0-0-0----5-4-0-5-4-0-5-4----|
E--------------------------------------|

     
E--------------------------------------|
B--------------------------------------|
G----9-9-9-9-9-9-----------------------|
D----9-9-9-9-9-9-----------------------|  X 6
A----7-7-7-7-7-7----5-4-0-5-4-0-5-4----|
E--------------------------------------|
end.

Enjoy!

| /  slide up
| \  slide down
| h  hammer-on
| p  pull-off
| ~  vibrato
| +  harmonic
| x  Mute note
===============================================================================
Related for Flame Thrower Love tab