Guitaretab - guitar tabs
Song name
# A B C D E F G H I J K L M N O P Q R S T U V W X Y Z

Dead Boys - All This And More tab

Tabbed By samr

It is sad, there are no Dead boy tabs here. I just tabbed this out myself.
The Dead Boys were a punk band from the late 70's.

INTRO
Played 2 Times
e-----------------------------------------------------------------------|
B-----------------------------------------------------------------------|
G---------------------------------6/7-7\6/7-77-6/7-7\6/7-77-------------|
D---------------------------------4/5-5\4/5-55-4/5-5\4/5-55-------------|
A-4/5-5\4/5-55-4/5-5\4/5-33---------------------------------------------|
E-2/3-3\2/3-33-2/3-3\2/3-33---------------------------------------------|

VERSE
Played 4 Times
I like to end this part with a regular C chord, (instead of the power C Chord) and have 
ring a couple times, but either way it is fine.
e----------------------------------------|
B----------------------------------------|
G---------9-77-5-55-55-5-55-55-----------|
D-55-99-9-77-5-55-55-5-55-55-------------|
A-55-99-7-55-3-33-33-3-33-33-------------|
E-33-77----------------------------------|
[ Tab from: http://www.guitaretab.com/d/dead-boys/135194.html ]
Played 2 Times
e----------------------------------------------------|
B----------------------------------------------------|
G----------------------------------------------------|
D--------------------------5555555555555555----------|
A-7777777777777777-3333333333333333
E-5555555555555555-------------------------

CHORUS
Again, You can play this with Power chords or regular chords, I like regular myself

Regular Chords: G C D

e-------------------------------------------------------|
B-------------------------------------------------------|
G-------------------------------------------------------|
D-----------------------5-5-55-5-555555-7---------------|
A-5-5-55-5-555555-3-3-33-3-333333- 5--------------------|
E-3-3-33-3-333333---------------------------------------|

SOLO

I'm pretty sure its right, just try to get the strum down...
e----------3---------33---------3----------33---------5--------55---------5---------55--|
B---------------------------------------------------------------------------------------|
G-5<5>55<5>55<5>55<5>5--7<7>7--7<7>7---7<7>7---7<7>7--------------------------------|
D---------------------------------------------------------------------------------------|
A---------------------------------------------------------------------------------------|
E---------------------------------------------------------------------------------------|
Related for All This And More tab