Song name
# A B C D E F G H I J K L M N O P Q R S T U V W X Y Z

Dead By April - Losing You tab

Standard tuning :)


IT'S 3/4!! Dont forget, count 1,2,3 in every tact!


~ = let ring
P = Palm mute


IT'S 3/4!! Dont forget, count 1,2,3 in every tact!


Intro (guitar'n'piano)

e|------------|------------|------------|------------|
B|------------|------------|------------|------------|
G|------------|------------|------------|------------|
D|-2-2--2-3-2-|-2-2--2-3-2-|-2-2--2-2-2-|-3-3--2-3-2-|
A|-0-0--0-0-0-|-0-0--0-0-0-|-0-0--0-0-0-|-0-0--0-0-0-| x2 Low distortion
E|------------|------------|------------|------------|



Riff
e|----------|----------|----------|-------------|
B|----------|----------|----------|-------------|
G|----------|----------|----------|-------------|
D|----------|----------|----------|-------------|
A|-5-5~~5-5-|-5-5~~5-5-|-5-5~~5-5-|-111-111-100-| 
E|-5-5~~5-5-|-5-5~~5-5-|-5-5~~5-5-|-111-111-100-|
   P          P          P          P----------|
                                                     x2                                          
e|----------|----------|----------|--------------|
B|----------|----------|----------|--------------|
G|----------|----------|----------|--------------|
D|----------|----------|----------|--------------|
A|-5-5~~5-5-|-5-5~~5-5-|-5-1~~5~~-|--1-1-1-1-0-0-| 
E|-5-5~~5-5-|-5-5~~5-5-|-5-1~~5~~-|--1-1-1-1-0-0-|
   P          P          P          P-----------|

Verse is the same as the riff. Try to listen!

Chorus 1

e|----------|----------|----------|----------|----------|----------|
B|----------|----------|----------|----------|----------|----------|
G|----------|----------|----------|----------|----------|----------|
D|----------|----------|----------|----------|----------|----------|
A|-1~~~~1~~~|~1--------|-3~~~~3~~~|~3--------|-5~~~~5~~~|~5~~~~~~~~|
E|-1~~~~1~~~|~1--------|-3~~~~3~~~|~3--------|-5~~~~5~~~|~5~~~~~~~~|

e|-----------|-----------|
B|-----------|-----------|
G|-----------|-----------|
D|-----------|-----------| x2
A|--5~~5-5~~5|~~5-5~~~5--| <  That's hard to explain
E|--5~~5-5~~5|~~5-5~~~5--|
       P        P

Half Riff, half Intro

Verse

Chorus 1

Chorus 2

e|----------|----------|----------|----------|----------|----------|
B|----------|----------|----------|----------|----------|----------|
G|----------|----------|----------|----------|----------|----------|
D|-3~~~~3~~~|~3~~~~~~~~|----------|----------|----------|----------|
A|-3~~~~3~~~|~3~~~~~~~~|-3~~~~3~~~|~3~~~~~~~~|-1~~~~1~~~|~1~~~~~~~~|
E|----------|----------|-3~~~~3~~~|~3~~~~~~~~|-1~~~~1~~~|~1~~~~~~~~|

e|----------|----------|
B|----------|----------|
G|----------|----------|
D|----------|----------| x2
A|-3~~~~3~~~|~3~~~~~~~~|
E|-3~~~~3~~~|~3~~~~~~~~|

Interlude

e|------------|
B|------------|
G|------------|
D|-2-2--2-3-2-|
A|-0-0--0-0-0-|
E|------------|

Then play the Intro twice!

Chorus 1

Chorus 2

Chorus 1
Tap to rate this tab
# A B C D E F G H I J K L M N O P Q R S T U V W X Y Z